  0
SECTION
  2
HEADER
  9
$ACADVER
  1
AC1015
  9
$ACADMAINTVER
 70
     6
  9
$DWGCODEPAGE
  3
ANSI_1250
  9
$INSBASE
 10
0.0
 20
0.0
 30
0.0
  9
$EXTMIN
 10
0.0
 20
0.0
 30
0.0
  9
$EXTMAX
 10
20000.0
 20
10000.0
 30
0.0
  9
$LIMMIN
 10
0.0
 20
0.0
  9
$LIMMAX
 10
20000.0
 20
10000.0
  9
$ORTHOMODE
 70
     0
  9
$REGENMODE
 70
     1
  9
$FILLMODE
 70
     1
  9
$QTEXTMODE
 70
     0
  9
$MIRRTEXT
 70
     1
  9
$LTSCALE
 40
1.0
  9
$ATTMODE
 70
     1
  9
$TEXTSIZE
 40
2.0
  9
$TRACEWID
 40
1.0
  9
$TEXTSTYLE
  7
Standard
  9
$CLAYER
  8
0
  9
$CELTYPE
  6
ByLayer
  9
$CECOLOR
 62
   256
  9
$CELTSCALE
 40
1.0
  9
$DISPSILH
 70
     0
  9
$DIMSCALE
 40
1.0
  9
$DIMASZ
 40
2.0
  9
$DIMEXO
 40
1.0
  9
$DIMDLI
 40
3.75
  9
$DIMRND
 40
0.0
  9
$DIMDLE
 40
0.0
  9
$DIMEXE
 40
1.0
  9
$DIMTP
 40
0.0
  9
$DIMTM
 40
0.0
  9
$DIMTXT
 40
2.0
  9
$DIMCEN
 40
2.5
  9
$DIMTSZ
 40
0.0
  9
$DIMTOL
 70
     0
  9
$DIMLIM
 70
     0
  9
$DIMTIH
 70
     1
  9
$DIMTOH
 70
     1
  9
$DIMSE1
 70
     0
  9
$DIMSE2
 70
     0
  9
$DIMTAD
 70
     1
  9
$DIMZIN
 70
     0
  9
$DIMBLK
  1

  9
$DIMASO
 70
     1
  9
$DIMSHO
 70
     1
  9
$DIMPOST
  1

  9
$DIMAPOST
  1

  9
$DIMALT
 70
     0
  9
$DIMALTD
 70
     3
  9
$DIMALTF
 40
0.0393700787
  9
$DIMLFAC
 40
1.0
  9
$DIMTOFL
 70
     1
  9
$DIMTVP
 40
0.0
  9
$DIMTIX
 70
     0
  9
$DIMSOXD
 70
     0
  9
$DIMSAH
 70
     0
  9
$DIMBLK1
  1

  9
$DIMBLK2
  1

  9
$DIMSTYLE
  2
ISO-25
  9
$DIMCLRD
 70
     0
  9
$DIMCLRE
 70
     0
  9
$DIMCLRT
 70
     0
  9
$DIMTFAC
 40
1.0
  9
$DIMGAP
 40
1.524
  9
$DIMJUST
 70
     0
  9
$DIMSD1
 70
     0
  9
$DIMSD2
 70
     0
  9
$DIMTOLJ
 70
     0
  9
$DIMTZIN
 70
     0
  9
$DIMALTZ
 70
     0
  9
$DIMALTTZ
 70
     0
  9
$DIMUPT
 70
     0
  9
$DIMDEC
 70
     2
  9
$DIMTDEC
 70
     0
  9
$DIMALTU
 70
     2
  9
$DIMALTTD
 70
     3
  9
$DIMTXSTY
  7
Standard
  9
$DIMAUNIT
 70
     0
  9
$DIMADEC
 70
     2
  9
$DIMALTRND
 40
0.0
  9
$DIMAZIN
 70
     0
  9
$DIMDSEP
 70
    44
  9
$DIMATFIT
 70
     3
  9
$DIMFRAC
 70
     0
  9
$DIMLDRBLK
  1

  9
$DIMLUNIT
 70
     2
  9
$DIMLWD
 70
    -2
  9
$DIMLWE
 70
    -2
  9
$DIMTMOVE
 70
     0
  9
$LUNITS
 70
     2
  9
$LUPREC
 70
     3
  9
$SKETCHINC
 40
1.0
  9
$FILLETRAD
 40
10.0
  9
$AUNITS
 70
     0
  9
$AUPREC
 70
     2
  9
$MENU
  1
.
  9
$ELEVATION
 40
0.0
  9
$PELEVATION
 40
0.0
  9
$THICKNESS
 40
0.0
  9
$LIMCHECK
 70
     0
  9
$CHAMFERA
 40
0.0
  9
$CHAMFERB
 40
0.0
  9
$CHAMFERC
 40
0.0
  9
$CHAMFERD
 40
0.0
  9
$SKPOLY
 70
     0
  9
$TDCREATE
 40
2460320.317968056
  9
$TDUCREATE
 40
2460320.276301389
  9
$TDUPDATE
 40
2460320.317968704
  9
$TDUUPDATE
 40
2460320.276302037
  9
$TDINDWG
 40
0.0000000116
  9
$TDUSRTIMER
 40
0.0000000116
  9
$USRTIMER
 70
     1
  9
$ANGBASE
 50
0.0
  9
$ANGDIR
 70
     0
  9
$PDMODE
 70
     0
  9
$PDSIZE
 40
-1.0
  9
$PLINEWID
 40
0.0
  9
$SPLFRAME
 70
     0
  9
$SPLINETYPE
 70
     6
  9
$SPLINESEGS
 70
     8
  9
$HANDSEED
  5
15B
  9
$SURFTAB1
 70
     6
  9
$SURFTAB2
 70
     6
  9
$SURFTYPE
 70
     6
  9
$SURFU
 70
     6
  9
$SURFV
 70
     6
  9
$UCSBASE
  2

  9
$UCSNAME
  2

  9
$UCSORG
 10
0.0
 20
0.0
 30
0.0
  9
$UCSXDIR
 10
1.0
 20
0.0
 30
0.0
  9
$UCSYDIR
 10
0.0
 20
1.0
 30
0.0
  9
$UCSORTHOREF
  2

  9
$UCSORTHOVIEW
 70
     0
  9
$UCSORGTOP
 10
0.0
 20
0.0
 30
0.0
  9
$UCSORGBOTTOM
 10
0.0
 20
0.0
 30
0.0
  9
$UCSORGLEFT
 10
0.0
 20
0.0
 30
0.0
  9
$UCSORGRIGHT
 10
0.0
 20
0.0
 30
0.0
  9
$UCSORGFRONT
 10
0.0
 20
0.0
 30
0.0
  9
$UCSORGBACK
 10
0.0
 20
0.0
 30
0.0
  9
$PUCSBASE
  2

  9
$PUCSNAME
  2

  9
$PUCSORG
 10
0.0
 20
0.0
 30
0.0
  9
$PUCSXDIR
 10
1.0
 20
0.0
 30
0.0
  9
$PUCSYDIR
 10
0.0
 20
1.0
 30
0.0
  9
$PUCSORTHOREF
  2

  9
$PUCSORTHOVIEW
 70
     0
  9
$PUCSORGTOP
 10
0.0
 20
0.0
 30
0.0
  9
$PUCSORGBOTTOM
 10
0.0
 20
0.0
 30
0.0
  9
$PUCSORGLEFT
 10
0.0
 20
0.0
 30
0.0
  9
$PUCSORGRIGHT
 10
0.0
 20
0.0
 30
0.0
  9
$PUCSORGFRONT
 10
0.0
 20
0.0
 30
0.0
  9
$PUCSORGBACK
 10
0.0
 20
0.0
 30
0.0
  9
$USERI1
 70
     0
  9
$USERI2
 70
     0
  9
$USERI3
 70
     0
  9
$USERI4
 70
     0
  9
$USERI5
 70
     0
  9
$USERR1
 40
0.0
  9
$USERR2
 40
0.0
  9
$USERR3
 40
0.0
  9
$USERR4
 40
0.0
  9
$USERR5
 40
0.0
  9
$WORLDVIEW
 70
     1
  9
$SHADEDGE
 70
     3
  9
$SHADEDIF
 70
    70
  9
$TILEMODE
 70
     1
  9
$MAXACTVP
 70
    64
  9
$PINSBASE
 10
0.0
 20
0.0
 30
0.0
  9
$PLIMCHECK
 70
     0
  9
$PEXTMIN
 10
1.0000000000E+20
 20
1.0000000000E+20
 30
1.0000000000E+20
  9
$PEXTMAX
 10
-1.0000000000E+20
 20
-1.0000000000E+20
 30
-1.0000000000E+20
  9
$PLIMMIN
 10
0.0
 20
0.0
  9
$PLIMMAX
 10
420.0
 20
297.0
  9
$UNITMODE
 70
     0
  9
$VISRETAIN
 70
     1
  9
$PLINEGEN
 70
     0
  9
$PSLTSCALE
 70
     1
  9
$TREEDEPTH
 70
  3020
  9
$CMLSTYLE
  2
Standard
  9
$CMLJUST
 70
     0
  9
$CMLSCALE
 40
20.0
  9
$PROXYGRAPHICS
 70
     1
  9
$MEASUREMENT
 70
     1
  9
$CELWEIGHT
370
    -1
  9
$ENDCAPS
280
     0
  9
$JOINSTYLE
280
     0
  9
$LWDISPLAY
290
     1
  9
$INSUNITS
 70
     4
  9
$HYPERLINKBASE
  1

  9
$STYLESHEET
  1

  9
$XEDIT
290
     1
  9
$CEPSNTYPE
380
     0
  9
$PSTYLEMODE
290
     1
  9
$FINGERPRINTGUID
  2
{9a52a572-5e35-4dc2-9259-349bd8a63c3b}
  9
$VERSIONGUID
  2
{FAEB1C32-E019-11D5-929B-00C0DF256EC4}
  9
$EXTNAMES
290
     1
  9
$PSVPSCALE
 40
0.0
  9
$OLESTARTUP
290
     0
  0
ENDSEC
  0
SECTION
  2
CLASSES
  0
CLASS
  1
ACDBDICTIONARYWDFLT
  2
AcDbDictionaryWithDefault
  3
ObjectDBX Classes
 90
        0
280
     0
281
     0
  0
CLASS
  1
VISUALSTYLE
  2
AcDbVisualStyle
  3
ObjectDBX Classes
 90
     4095
280
     0
281
     0
  0
CLASS
  1
MATERIAL
  2
AcDbMaterial
  3
ObjectDBX Classes
 90
     1153
280
     0
281
     0
  0
CLASS
  1
SCALE
  2
AcDbScale
  3
ObjectDBX Classes
 90
     1153
280
     0
281
     0
  0
CLASS
  1
TABLESTYLE
  2
AcDbTableStyle
  3
ObjectDBX Classes
 90
     4095
280
     0
281
     0
  0
CLASS
  1
MLEADERSTYLE
  2
AcDbMLeaderStyle
  3
ACDB_MLEADERSTYLE_CLASS
 90
     4095
280
     0
281
     0
  0
CLASS
  1
SUN
  2
AcDbSun
  3
SCENEOE
 90
     1153
280
     0
281
     0
  0
CLASS
  1
ACDBPLACEHOLDER
  2
AcDbPlaceHolder
  3
ObjectDBX Classes
 90
        0
280
     0
281
     0
  0
CLASS
  1
LAYOUT
  2
AcDbLayout
  3
ObjectDBX Classes
 90
        0
280
     0
281
     0
  0
ENDSEC
  0
SECTION
  2
TABLES
  0
TABLE
  2
VPORT
  5
8
330
0
100
AcDbSymbolTable
 70
     1
  0
VPORT
  5
29
330
8
100
AcDbSymbolTableRecord
100
AcDbViewportTableRecord
  2
*Active
 70
     0
 10
0.0
 20
0.0
 11
1.0
 21
1.0
 12
10000.0
 22
5000.0
 13
0.0
 23
0.0
 14
10.0
 24
10.0
 15
10.0
 25
10.0
 16
0.0
 26
0.0
 36
1.0
 17
0.0
 27
0.0
 37
0.0
 40
10000.0
 41
2.0
 42
50.0
 43
0.0
 44
0.0
 50
0.0
 51
0.0
 71
     0
 72
  2000
 73
     1
 74
     3
 75
     0
 76
     0
 77
     0
 78
     0
281
     0
 65
     1
110
0.0
120
0.0
130
0.0
111
1.0
121
0.0
131
0.0
112
0.0
122
1.0
132
0.0
 79
     0
146
0.0
  0
ENDTAB
  0
TABLE
  2
LTYPE
  5
5
330
0
100
AcDbSymbolTable
 70
     6
  0
LTYPE
  5
14
330
5
100
AcDbSymbolTableRecord
100
AcDbLinetypeTableRecord
  2
ByBlock
 70
     0
  3

 72
    65
 73
     0
 40
0.0
  0
LTYPE
  5
15
330
5
100
AcDbSymbolTableRecord
100
AcDbLinetypeTableRecord
  2
ByLayer
 70
     0
  3

 72
    65
 73
     0
 40
0.0
  0
LTYPE
  5
16
330
5
100
AcDbSymbolTableRecord
100
AcDbLinetypeTableRecord
  2
Continuous
 70
     0
  3
Solid line
 72
    65
 73
     0
 40
0.0
  0
LTYPE
  5
6E
330
5
100
AcDbSymbolTableRecord
100
AcDbLinetypeTableRecord
  2
HIDDEN
 70
     0
  3
Hidden __ __ __ __ __ __ __ __ __ __ __ __ __ __
 72
    65
 73
     2
 40
1.905
 49
1.27
 74
     0
 49
-0.635
 74
     0
  0
LTYPE
  5
6F
330
5
100
AcDbSymbolTableRecord
100
AcDbLinetypeTableRecord
  2
PHANTOM
 70
     0
  3
Phantom ______  __  __  ______  __  __  ______
 72
    65
 73
     6
 40
12.7
 49
6.35
 74
     0
 49
-1.27
 74
     0
 49
1.27
 74
     0
 49
-1.27
 74
     0
 49
1.27
 74
     0
 49
-1.27
 74
     0
  0
LTYPE
  5
70
330
5
100
AcDbSymbolTableRecord
100
AcDbLinetypeTableRecord
  2
CENTER
 70
     0
  3
Center ____ _ ____ _ ____ _ ____ _ ____ _ ____
 72
    65
 73
     4
 40
10.16
 49
6.35
 74
     0
 49
-1.27
 74
     0
 49
1.27
 74
     0
 49
-1.27
 74
     0
  0
LTYPE
  5
71
330
5
100
AcDbSymbolTableRecord
100
AcDbLinetypeTableRecord
  2
CENTERX2
 70
     0
  3
Center (2x) ________  __  ________  __  _____
 72
    65
 73
     4
 40
20.32
 49
12.7
 74
     0
 49
-2.54
 74
     0
 49
2.54
 74
     0
 49
-2.54
 74
     0
  0
LTYPE
  5
72
330
5
100
AcDbSymbolTableRecord
100
AcDbLinetypeTableRecord
  2
DOT2
 70
     0
  3
Dot (.5x) ........................................
 72
    65
 73
     2
 40
0.635
 49
0.0
 74
     0
 49
-0.635
 74
     0
  0
ENDTAB
  0
TABLE
  2
LAYER
  5
2
330
0
100
AcDbSymbolTable
 70
    13
  0
LAYER
  5
10
330
2
100
AcDbSymbolTableRecord
100
AcDbLayerTableRecord
  2
0
 70
     0
 62
     7
  6
Continuous
370
    -3
390
F
  0
LAYER
  5
73
330
2
100
AcDbSymbolTableRecord
100
AcDbLayerTableRecord
  2
FORMAT
 70
     0
 62
     7
  6
Continuous
370
    -3
390
F
  0
LAYER
  5
74
330
2
100
AcDbSymbolTableRecord
100
AcDbLayerTableRecord
  2
OSA
 70
     0
 62
     7
  6
CENTER
370
    -3
390
F
  0
LAYER
  5
75
330
2
100
AcDbSymbolTableRecord
100
AcDbLayerTableRecord
  2
0_35
 70
     0
 62
     7
  6
Continuous
370
    35
390
F
  0
LAYER
  5
76
330
2
100
AcDbSymbolTableRecord
100
AcDbLayerTableRecord
  2
0_5
 70
     0
 62
     7
  6
Continuous
370
    50
390
F
  0
LAYER
  5
77
330
2
100
AcDbSymbolTableRecord
100
AcDbLayerTableRecord
  2
0_25
 70
     0
 62
     7
  6
Continuous
370
    25
390
F
  0
LAYER
  5
78
330
2
100
AcDbSymbolTableRecord
100
AcDbLayerTableRecord
  2
0_18
 70
     0
 62
     7
  6
Continuous
370
    -3
390
F
  0
LAYER
  5
79
330
2
100
AcDbSymbolTableRecord
100
AcDbLayerTableRecord
  2
SLD-0
 70
     0
 62
   179
  6
Continuous
370
    -3
390
F
  0
LAYER
  5
7A
330
2
100
AcDbSymbolTableRecord
100
AcDbLayerTableRecord
  2
KOTY
 70
     0
 62
     7
  6
Continuous
370
    -3
390
F
  0
LAYER
  5
7B
330
2
100
AcDbSymbolTableRecord
100
AcDbLayerTableRecord
  2
SILNA
 70
     0
 62
   179
  6
Continuous
370
    -3
390
F
  0
LAYER
  5
7C
330
2
100
AcDbSymbolTableRecord
100
AcDbLayerTableRecord
  2
0_18_1
 70
     0
 62
   179
  6
Continuous
370
    -3
390
F
  0
LAYER
  5
7D
330
2
100
AcDbSymbolTableRecord
100
AcDbLayerTableRecord
  2
0_35_1
 70
     0
 62
   179
  6
Continuous
370
    35
390
F
  0
LAYER
  5
7E
330
2
100
AcDbSymbolTableRecord
100
AcDbLayerTableRecord
  2
0_5_1
 70
     0
 62
   179
  6
Continuous
370
    50
390
F
  0
ENDTAB
  0
TABLE
  2
STYLE
  5
3
330
0
100
AcDbSymbolTable
 70
     1
  0
STYLE
  5
11
330
3
100
AcDbSymbolTableRecord
100
AcDbTextStyleTableRecord
  2
Standard
 70
     0
 40
0.0
 41
1.0
 50
0.0
 71
     0
 42
2.0
  3
txt
  4

  0
ENDTAB
  0
TABLE
  2
VIEW
  5
6
330
0
100
AcDbSymbolTable
 70
     0
  0
ENDTAB
  0
TABLE
  2
UCS
  5
7
330
0
100
AcDbSymbolTable
 70
     0
  0
ENDTAB
  0
TABLE
  2
APPID
  5
9
330
0
100
AcDbSymbolTable
 70
     1
  0
APPID
  5
12
330
9
100
AcDbSymbolTableRecord
100
AcDbRegAppTableRecord
  2
ACAD
 70
     0
  0
ENDTAB
  0
TABLE
  2
DIMSTYLE
  5
A
330
0
100
AcDbSymbolTable
 70
     1
100
AcDbDimStyleTable
  0
DIMSTYLE
105
27
330
A
100
AcDbSymbolTableRecord
100
AcDbDimStyleTableRecord
  2
ISO-25
 70
     0
 41
2.5
 42
0.625
 43
3.75
 44
1.25
 73
     0
 74
     0
 77
     1
 78
     8
140
2.5
141
2.5
143
0.0393700787
147
0.625
171
     3
172
     1
178
     0
271
     2
272
     2
274
     3
278
    44
283
     0
284
     8
340
11
  0
ENDTAB
  0
TABLE
  2
BLOCK_RECORD
  5
1
330
0
100
AcDbSymbolTable
 70
     1
  0
BLOCK_RECORD
  5
1F
330
1
100
AcDbSymbolTableRecord
100
AcDbBlockTableRecord
  2
*Model_Space
340
22
  0
BLOCK_RECORD
  5
1B
330
1
100
AcDbSymbolTableRecord
100
AcDbBlockTableRecord
  2
*Paper_Space
340
1E
  0
BLOCK_RECORD
  5
23
330
1
100
AcDbSymbolTableRecord
100
AcDbBlockTableRecord
  2
*Paper_Space0
340
26
  0
ENDTAB
  0
ENDSEC
  0
SECTION
  2
BLOCKS
  0
BLOCK
  5
20
330
1F
100
AcDbEntity
  8
0
100
AcDbBlockBegin
  2
*Model_Space
 70
     0
 10
0.0
 20
0.0
 30
0.0
  3
*Model_Space
  1

  0
ENDBLK
  5
21
330
1F
100
AcDbEntity
  8
0
100
AcDbBlockEnd
  0
BLOCK
  5
1C
330
1B
100
AcDbEntity
 67
     1
  8
0
100
AcDbBlockBegin
  2
*Paper_Space
 70
     0
 10
0.0
 20
0.0
 30
0.0
  3
*Paper_Space
  1

  0
ENDBLK
  5
1D
330
1B
100
AcDbEntity
 67
     1
  8
0
100
AcDbBlockEnd
  0
BLOCK
  5
24
330
23
100
AcDbEntity
  8
0
100
AcDbBlockBegin
  2
*Paper_Space0
 70
     0
 10
0.0
 20
0.0
 30
0.0
  3
*Paper_Space0
  1

  0
ENDBLK
  5
25
330
23
100
AcDbEntity
  8
0
100
AcDbBlockEnd
  0
ENDSEC
  0
SECTION
  2
ENTITIES
  0
LINE
  5
7F
330
1F
100
AcDbEntity
  8
0
  6
Continuous
 62
     7
370
    25
100
AcDbLine
 10
8950.8739852703
 20
6631.0961538462
 30
0.0
 11
8950.8739852703
 21
6767.3461538462
 31
0.0
  0
LINE
  5
80
330
1F
100
AcDbEntity
  8
0
  6
Continuous
 62
     7
370
    25
100
AcDbLine
 10
8918.8739852703
 20
6767.3461538462
 30
0.0
 11
8918.8739852703
 21
6631.0961538462
 31
0.0
  0
ARC
  5
81
330
1F
100
AcDbEntity
  8
0
  6
Continuous
 62
     7
370
    25
100
AcDbCircle
 10
8918.7171522484
 20
6737.2854282603
 30
0.0
 40
1.000000000000758
100
AcDbArc
 50
191.1189649882
 51
249.930058606
  0
ARC
  5
82
330
1F
100
AcDbEntity
  8
0
  6
Continuous
 62
     7
370
    25
100
AcDbCircle
 10
8951.0308182922
 20
6737.2854282603
 30
0.0
 40
1.000000000000758
100
AcDbArc
 50
290.0699413941
 51
348.8810350118
  0
ARC
  5
83
330
1F
100
AcDbEntity
  8
0
  6
Continuous
 62
     7
370
    25
100
AcDbCircle
 10
8918.7171522484
 20
6661.156879432
 30
0.0
 40
1.000000000000933
100
AcDbArc
 50
110.069941394
 51
168.8810350117
  0
ARC
  5
84
330
1F
100
AcDbEntity
  8
0
  6
Continuous
 62
     7
370
    25
100
AcDbCircle
 10
8951.0308182922
 20
6661.156879432
 30
0.0
 40
1.000000000000933
100
AcDbArc
 50
11.1189649883
 51
69.9300586059
  0
LINE
  5
85
330
1F
100
AcDbEntity
  8
0
  6
Continuous
 62
     7
370
    25
100
AcDbLine
 10
8951.3739852703
 20
6662.0961538462
 30
0.0
 11
8951.3739852703
 21
6736.3461538462
 31
0.0
  0
LINE
  5
86
330
1F
100
AcDbEntity
  8
0
  6
Continuous
 62
     7
370
    25
100
AcDbLine
 10
8918.3739852703
 20
6736.3461538462
 30
0.0
 11
8918.3739852703
 21
6662.0961538462
 31
0.0
  0
SPLINE
  5
87
330
1F
100
AcDbEntity
  8
0
  6
Continuous
 62
     7
370
    25
100
AcDbSpline
210
0.0
220
0.0
230
1.0
 70
     8
 71
     3
 72
    20
 73
    16
 74
     0
 42
0.00000001
 43
0.00000001
 40
0.0
 40
0.0
 40
0.0
 40
0.0
 40
0.1348068943648758
 40
0.2868886252545498
 40
0.4137584423865712
 40
0.5147671746872018
 40
0.5880384176730097
 40
0.6318136573949331
 40
0.6431611050416642
 40
0.6511308199164834
 40
0.6606690340416649
 40
0.6773293869699586
 40
0.7192846567783754
 40
0.9248556196625481
 40
1.0
 40
1.0
 40
1.0
 40
1.0
 10
8924.890004946234
 20
6618.331280962565
 30
0.0
 10
8924.897298164093
 20
6618.197528736317
 30
0.0
 10
8924.912819189594
 20
6617.912884597797
 30
0.0
 10
8925.065218984999
 20
6617.52619151682
 30
0.0
 10
8925.262913250275
 20
6617.205912232817
 30
0.0
 10
8925.463103038814
 20
6616.982259065826
 30
0.0
 10
8925.62416416986
 20
6616.842309905119
 30
0.0
 10
8925.730492323726
 20
6616.765579673469
 30
0.0
 10
8925.775961572564
 20
6616.73536616913
 30
0.0
 10
8925.790031405395
 20
6616.726217823822
 30
0.0
 10
8925.80038967608
 20
6616.719570446119
 30
0.0
 10
8925.811141098022
 20
6616.712753914644
 30
0.0
 10
8925.830479985498
 20
6616.700666991309
 30
0.0
 10
8925.837228852306
 20
6616.696134360473
 30
0.0
 10
8925.899276667666
 20
6616.658258768842
 30
0.0
 10
8925.915886178864
 20
6616.648119893531
 30
0.0
  0
LINE
  5
88
330
1F
100
AcDbEntity
  8
0
  6
Continuous
 62
     7
370
    25
100
AcDbLine
 10
8924.8739852703
 20
6618.5764967439
 30
0.0
 11
8924.8739852703
 21
6618.3431082786
 31
0.0
  0
LINE
  5
89
330
1F
100
AcDbEntity
  8
0
  6
Continuous
 62
     7
370
    25
100
AcDbLine
 10
8944.8739852703
 20
6618.3594094563
 30
0.0
 11
8944.8739852703
 21
6618.5282827257
 31
0.0
  0
SPLINE
  5
8A
330
1F
100
AcDbEntity
  8
0
  6
Continuous
 62
     7
370
    25
100
AcDbSpline
210
0.0
220
0.0
230
1.0
 70
     8
 71
     3
 72
    17
 73
    13
 74
     0
 42
0.00000001
 43
0.00000001
 40
0.0
 40
0.0
 40
0.0
 40
0.0
 40
0.06844759033101
 40
0.2798219421904838
 40
0.3996066677565286
 40
0.4239261959813715
 40
0.4386474178258499
 40
0.4612466308046411
 40
0.5602365679014594
 40
0.7637474502017763
 40
0.938068166419234
 40
1.0
 40
1.0
 40
1.0
 40
1.0
 10
8943.760399793944
 20
6616.604136323193
 30
0.0
 10
8943.781344410516
 20
6616.616689851362
 30
0.0
 10
8943.866968510049
 20
6616.668010177131
 30
0.0
 10
8943.915356152735
 20
6616.699582957343
 30
0.0
 10
8943.940590001888
 20
6616.714873543445
 30
0.0
 10
8943.988284559702
 20
6616.746306053212
 30
0.0
 10
8944.027405528095
 20
6616.773128922094
 30
0.0
 10
8944.145089662778
 20
6616.858466725864
 30
0.0
 10
8944.421008999247
 20
6617.102752090432
 30
0.0
 10
8944.70832782834
 20
6617.552098881286
 30
0.0
 10
8944.87501542647
 20
6618.030622360681
 30
0.0
 10
8944.854313944274
 20
6618.293871303687
 30
0.0
 10
8944.848887206017
 20
6618.362880039222
 30
0.0
  0
ARC
  5
8B
330
1F
100
AcDbEntity
  8
0
  6
Continuous
 62
     7
370
    25
100
AcDbCircle
 10
8934.8739852703
 20
6631.0961538462
 30
0.0
 40
16.0
100
AcDbArc
 50
180.0
 51
270.0
  0
ARC
  5
8C
330
1F
100
AcDbEntity
  8
0
  6
Continuous
 62
     7
370
    25
100
AcDbCircle
 10
8934.8739852703
 20
6631.0961538462
 30
0.0
 40
16.0
100
AcDbArc
 50
270.0
 51
0.0
  0
ARC
  5
8D
330
1F
100
AcDbEntity
  8
0
  6
Continuous
 62
     7
370
    25
100
AcDbCircle
 10
8934.8739852703
 20
6767.3461538462
 30
0.0
 40
16.0
100
AcDbArc
 50
90.0
 51
180.0
  0
ARC
  5
8E
330
1F
100
AcDbEntity
  8
0
  6
Continuous
 62
     7
370
    25
100
AcDbCircle
 10
8934.8739852703
 20
6767.3461538462
 30
0.0
 40
16.0
100
AcDbArc
 50
0.0
 51
90.0
  0
ARC
  5
8F
330
1F
100
AcDbEntity
  8
0
  6
Continuous
 62
     7
370
    25
100
AcDbCircle
 10
8922.5498074178
 20
6659.8115653017
 30
0.0
 40
4.931791878665636
100
AcDbArc
 50
161.827024008
 51
175.5045762314
  0
SPLINE
  5
90
330
1F
100
AcDbEntity
  8
0
  6
Continuous
 62
     7
370
    25
100
AcDbSpline
210
0.0
220
0.0
230
1.0
 70
     8
 71
     3
 72
    12
 73
     8
 74
     0
 42
0.00000001
 43
0.00000001
 40
0.0
 40
0.0
 40
0.0
 40
0.0
 40
0.1025627405028535
 40
0.4013896461256332
 40
0.6995883348093365
 40
0.8501185184866356
 40
1.0
 40
1.0
 40
1.0
 40
1.0
 10
8918.873985270297
 20
6644.475390363148
 30
0.0
 10
8918.741028146336
 20
6644.988511874568
 30
0.0
 10
8918.220687010025
 20
6646.996664746448
 30
0.0
 10
8917.717725005703
 20
6650.681483103676
 30
0.0
 10
8917.454011723803
 20
6654.63009566571
 30
0.0
 10
8917.486775920483
 20
6657.915922143236
 30
0.0
 10
8917.584454093494
 20
6659.438481002263
 30
0.0
 10
8917.63318771798
 20
6660.198116542172
 30
0.0
  0
ARC
  5
91
330
1F
100
AcDbEntity
  8
0
  6
Continuous
 62
     7
370
    25
100
AcDbCircle
 10
8947.1981631231
 20
6738.6307423905
 30
0.0
 40
4.931791878352013
100
AcDbArc
 50
341.8270240076
 51
355.5045762319
  0
SPLINE
  5
92
330
1F
100
AcDbEntity
  8
0
  6
Continuous
 62
     7
370
    25
100
AcDbSpline
210
0.0
220
0.0
230
1.0
 70
     8
 71
     3
 72
    12
 73
     8
 74
     0
 42
0.00000001
 43
0.00000001
 40
0.0
 40
0.0
 40
0.0
 40
0.0
 40
0.1025627405028138
 40
0.4013896461253893
 40
0.6995883348092197
 40
0.8501185184865883
 40
1.0
 40
1.0
 40
1.0
 40
1.0
 10
8950.873985270297
 20
6753.966917329161
 30
0.0
 10
8951.006942394259
 20
6753.453795817741
 30
0.0
 10
8951.527283530568
 20
6751.445642945862
 30
0.0
 10
8952.03024553489
 20
6747.760824588632
 30
0.0
 10
8952.29395881679
 20
6743.812212026599
 30
0.0
 10
8952.261194620112
 20
6740.526385549069
 30
0.0
 10
8952.1635164471
 20
6739.003826690044
 30
0.0
 10
8952.114782822613
 20
6738.244191150135
 30
0.0
  0
ARC
  5
93
330
1F
100
AcDbEntity
  8
0
  6
Continuous
 62
     7
370
    25
100
AcDbCircle
 10
8947.1981631229
 20
6659.8115653018
 30
0.0
 40
4.931791878555122
100
AcDbArc
 50
4.4954237684
 51
18.1729759922
  0
SPLINE
  5
94
330
1F
100
AcDbEntity
  8
0
  6
Continuous
 62
     7
370
    25
100
AcDbSpline
210
0.0
220
0.0
230
1.0
 70
     8
 71
     3
 72
    12
 73
     8
 74
     0
 42
0.00000001
 43
0.00000001
 40
0.0
 40
0.0
 40
0.0
 40
0.0
 40
0.1484306233113906
 40
0.2980977659359694
 40
0.5986874377004432
 40
0.8956223036357368
 40
1.0
 40
1.0
 40
1.0
 40
1.0
 10
8952.114782822613
 20
6660.198116542172
 30
0.0
 10
8952.164516854777
 20
6659.434928458896
 30
0.0
 10
8952.264399234493
 20
6657.902194461439
 30
0.0
 10
8952.29246424344
 20
6654.668107746706
 30
0.0
 10
8952.033467482175
 20
6650.697580255061
 30
0.0
 10
8951.52896662325
 20
6647.008856947677
 30
0.0
 10
8951.009177601198
 20
6645.001347211359
 30
0.0
 10
8950.873985270297
 20
6644.479212443124
 30
0.0
  0
ARC
  5
95
330
1F
100
AcDbEntity
  8
0
  6
Continuous
 62
     7
370
    25
100
AcDbCircle
 10
8922.549807418
 20
6738.6307423906
 30
0.0
 40
4.93179187885494
100
AcDbArc
 50
184.4954237688
 51
198.1729759918
  0
SPLINE
  5
96
330
1F
100
AcDbEntity
  8
0
  6
Continuous
 62
     7
370
    25
100
AcDbSpline
210
0.0
220
0.0
230
1.0
 70
     8
 71
     3
 72
    12
 73
     8
 74
     0
 42
0.00000001
 43
0.00000001
 40
0.0
 40
0.0
 40
0.0
 40
0.0
 40
0.148430623312413
 40
0.2980977659379837
 40
0.5986874377044499
 40
0.8956223036377065
 40
1.0
 40
1.0
 40
1.0
 40
1.0
 10
8917.63318771798
 20
6738.244191150138
 30
0.0
 10
8917.583453685816
 20
6739.00737923342
 30
0.0
 10
8917.483571306102
 20
6740.540113230891
 30
0.0
 10
8917.455506297158
 20
6743.774199945642
 30
0.0
 10
8917.714503058423
 20
6747.74472743729
 30
0.0
 10
8918.219003917353
 20
6751.433450744662
 30
0.0
 10
8918.738792939399
 20
6753.44096048096
 30
0.0
 10
8918.873985270297
 20
6753.963095249184
 30
0.0
  0
LINE
  5
97
330
1F
100
AcDbEntity
  8
0
  6
Continuous
 62
     7
370
    25
100
AcDbLine
 10
8951.8839535784
 20
6737.092581495
 30
0.0
 11
8952.0120471773
 21
6737.092581495
 31
0.0
  0
LINE
  5
98
330
1F
100
AcDbEntity
  8
0
  6
Continuous
 62
     7
370
    25
100
AcDbLine
 10
8917.7359233633
 20
6737.092581495
 30
0.0
 11
8917.8640169622
 21
6737.092581495
 31
0.0
  0
LINE
  5
99
330
1F
100
AcDbEntity
  8
0
  6
Continuous
 62
     7
370
    25
100
AcDbLine
 10
8951.3739852703
 20
6736.3461538462
 30
0.0
 11
8950.8739852703
 21
6736.3461538462
 31
0.0
  0
LINE
  5
9A
330
1F
100
AcDbEntity
  8
0
  6
Continuous
 62
     7
370
    25
100
AcDbLine
 10
8918.8739852703
 20
6736.3461538462
 30
0.0
 11
8918.3739852703
 21
6736.3461538462
 31
0.0
  0
LINE
  5
9B
330
1F
100
AcDbEntity
  8
0
  6
Continuous
 62
     7
370
    25
100
AcDbLine
 10
8918.3739852703
 20
6662.0961538462
 30
0.0
 11
8918.8739852703
 21
6662.0961538462
 31
0.0
  0
LINE
  5
9C
330
1F
100
AcDbEntity
  8
0
  6
Continuous
 62
     7
370
    25
100
AcDbLine
 10
8950.8739852703
 20
6662.0961538462
 30
0.0
 11
8951.3739852703
 21
6662.0961538462
 31
0.0
  0
LINE
  5
9D
330
1F
100
AcDbEntity
  8
0
  6
Continuous
 62
     7
370
    25
100
AcDbLine
 10
8917.8640169622
 20
6661.3497261973
 30
0.0
 11
8917.7359233633
 21
6661.3497261973
 31
0.0
  0
LINE
  5
9E
330
1F
100
AcDbEntity
  8
0
  6
Continuous
 62
     7
370
    25
100
AcDbLine
 10
8952.0120471773
 20
6661.3497261973
 30
0.0
 11
8951.8839535784
 21
6661.3497261973
 31
0.0
  0
SPLINE
  5
9F
330
1F
100
AcDbEntity
  8
0
  6
Continuous
 62
     7
370
    25
100
AcDbSpline
210
0.0
220
0.0
230
1.0
 70
     8
 71
     3
 72
    15
 73
    11
 74
     0
 42
0.00000001
 43
0.00000001
 40
0.0
 40
0.0
 40
0.0
 40
0.0
 40
0.1448926537106827
 40
0.2952408057718364
 40
0.4212135185541865
 40
0.549505709487455
 40
0.6645217456360469
 40
0.7846470180725493
 40
0.9232218721728627
 40
0.9999999999999999
 40
0.9999999999999999
 40
0.9999999999999999
 40
0.9999999999999999
 10
8943.287495863018
 20
6616.324124889163
 30
0.0
 10
8942.772878697551
 20
6616.045327096448
 30
0.0
 10
8941.72426800056
 20
6615.477234216233
 30
0.0
 10
8939.293834093103
 20
6614.604656788994
 30
0.0
 10
8936.571037504407
 20
6614.108581546381
 30
0.0
 10
8933.878944684355
 20
6614.056468599086
 30
0.0
 10
8931.351117957245
 20
6614.409274272068
 30
0.0
 10
8929.077021009274
 20
6615.058946747022
 30
0.0
 10
8927.410196132632
 20
6615.798216775901
 30
0.0
 10
8926.710081216708
 20
6616.185905305563
 30
0.0
 10
8926.460474677586
 20
6616.324124889157
 30
0.0
  0
ARC
  5
A0
330
1F
100
AcDbEntity
  8
0
  6
Continuous
 62
     7
370
    25
100
AcDbCircle
 10
8927.3890095969
 20
6617.8716294819
 30
0.0
 40
1.804701515757592
100
AcDbArc
 50
173.9444994273
 51
239.0353678545
  0
ARC
  5
A1
330
1F
100
AcDbEntity
  8
0
  6
Continuous
 62
     7
370
    25
100
AcDbCircle
 10
8942.3589609437
 20
6617.8716294819
 30
0.0
 40
1.804701515766951
100
AcDbArc
 50
300.9646321457
 51
6.0555005725
  0
SPLINE
  5
A2
330
1F
100
AcDbEntity
  8
0
  6
Continuous
 62
     7
370
    25
100
AcDbSpline
210
0.0
220
0.0
230
1.0
 70
     8
 71
     3
 72
     9
 73
     5
 74
     0
 42
0.00000001
 43
0.00000001
 40
0.0
 40
0.0
 40
0.0
 40
0.0
 40
0.6481801615714897
 40
1.0
 40
1.0
 40
1.0
 40
1.0
 10
8926.460474677586
 20
6616.324124889157
 30
0.0
 10
8926.209153857277
 20
6616.47382647158
 30
0.0
 10
8925.821420885475
 20
6616.70478321987
 30
0.0
 10
8925.883547384414
 20
6616.667508782618
 30
0.0
 10
8925.905404719235
 20
6616.654394896127
 30
0.0
  0
SPLINE
  5
A3
330
1F
100
AcDbEntity
  8
0
  6
Continuous
 62
     7
370
    25
100
AcDbSpline
210
0.0
220
0.0
230
1.0
 70
     8
 71
     3
 72
    10
 73
     6
 74
     0
 42
0.00000001
 43
0.00000001
 40
0.0
 40
0.0
 40
0.0
 40
0.0
 40
0.0932025204116906
 40
0.3782425060830191
 40
1.0
 40
1.0
 40
1.0
 40
1.0
 10
8943.76056061108
 20
6616.603865667118
 30
0.0
 10
8943.757986620458
 20
6616.602255917534
 30
0.0
 10
8943.747540629736
 20
6616.595723092948
 30
0.0
 10
8943.57577096403
 20
6616.490864071837
 30
0.0
 10
8943.404755109477
 20
6616.391947988857
 30
0.0
 10
8943.287495863018
 20
6616.324124889163
 30
0.0
  0
SPLINE
  5
A4
330
1F
100
AcDbEntity
  8
0
  6
Continuous
 62
     7
370
    25
100
AcDbSpline
210
0.0
220
0.0
230
1.0
 70
     8
 71
     3
 72
    10
 73
     6
 74
     0
 42
0.00000001
 43
0.00000001
 40
0.0
 40
0.0
 40
0.0
 40
0.0
 40
0.0148992016032059
 40
0.1293477307968971
 40
1.0
 40
1.0
 40
1.0
 40
1.0
 10
8917.735923363263
 20
6737.092581495012
 30
0.0
 10
8917.735346945898
 20
6737.098322613367
 30
0.0
 10
8917.730342766474
 20
6737.14816425261
 30
0.0
 10
8917.69215569459
 20
6737.533389671097
 30
0.0
 10
8917.660853361402
 20
6737.910708785763
 30
0.0
 10
8917.63318771798
 20
6738.244191150138
 30
0.0
  0
SPLINE
  5
A5
330
1F
100
AcDbEntity
  8
0
  6
Continuous
 62
     7
370
    25
100
AcDbSpline
210
0.0
220
0.0
230
1.0
 70
     8
 71
     3
 72
    10
 73
     6
 74
     0
 42
0.00000001
 43
0.00000001
 40
0.0
 40
0.0
 40
0.0
 40
0.0
 40
0.8706522692101435
 40
0.9851007983947268
 40
1.0
 40
1.0
 40
1.0
 40
1.0
 10
8917.63318771798
 20
6660.198116542172
 30
0.0
 10
8917.660853361485
 20
6660.531598907397
 30
0.0
 10
8917.692155694771
 20
6660.90891802302
 30
0.0
 10
8917.73034276642
 20
6661.294143439151
 30
0.0
 10
8917.73534694589
 20
6661.343985078883
 30
0.0
 10
8917.735923363261
 20
6661.349726197294
 30
0.0
  0
SPLINE
  5
A6
330
1F
100
AcDbEntity
  8
0
  6
Continuous
 62
     7
370
    25
100
AcDbSpline
210
0.0
220
0.0
230
1.0
 70
     8
 71
     3
 72
    10
 73
     6
 74
     0
 42
0.00000001
 43
0.00000001
 40
0.0
 40
0.0
 40
0.0
 40
0.0
 40
0.0148992016052712
 40
0.1293477307897504
 40
1.0
 40
1.0
 40
1.0
 40
1.0
 10
8952.012047177332
 20
6661.349726197294
 30
0.0
 10
8952.012623594701
 20
6661.343985078884
 30
0.0
 10
8952.017627774176
 20
6661.294143439154
 30
0.0
 10
8952.055814845824
 20
6660.908918023012
 30
0.0
 10
8952.087117179108
 20
6660.531598907392
 30
0.0
 10
8952.114782822613
 20
6660.198116542172
 30
0.0
  0
SPLINE
  5
A7
330
1F
100
AcDbEntity
  8
0
  6
Continuous
 62
     7
370
    25
100
AcDbSpline
210
0.0
220
0.0
230
1.0
 70
     8
 71
     3
 72
    10
 73
     6
 74
     0
 42
0.00000001
 43
0.00000001
 40
0.0
 40
0.0
 40
0.0
 40
0.0
 40
0.8706522692140345
 40
0.9851007983921323
 40
1.0
 40
1.0
 40
1.0
 40
1.0
 10
8952.114782822613
 20
6738.244191150135
 30
0.0
 10
8952.087117179048
 20
6737.910708784314
 30
0.0
 10
8952.055814845697
 20
6737.533389668019
 30
0.0
 10
8952.017627774214
 20
6737.148164253539
 30
0.0
 10
8952.012623594706
 20
6737.098322613464
 30
0.0
 10
8952.012047177332
 20
6737.092581495011
 30
0.0
  0
LINE
  5
A8
330
1F
100
AcDbEntity
  8
0
  6
Continuous
 62
     7
370
    25
100
AcDbLine
 10
8979.3739852703
 20
6827.3461538462
 30
0.0
 11
8890.3739852703
 21
6827.3461538462
 31
0.0
  0
ARC
  5
A9
330
1F
100
AcDbEntity
  8
0
  6
Continuous
 62
     7
370
    25
100
AcDbCircle
 10
8979.3739852703
 20
6820.8461538462
 30
0.0
 40
6.5
100
AcDbArc
 50
0.0
 51
90.0
  0
LINE
  5
AA
330
1F
100
AcDbEntity
  8
0
  6
Continuous
 62
     7
370
    25
100
AcDbLine
 10
8985.8739852703
 20
6611.8461538462
 30
0.0
 11
8985.8739852703
 21
6820.8461538462
 31
0.0
  0
ARC
  5
AB
330
1F
100
AcDbEntity
  8
0
  6
Continuous
 62
     7
370
    25
100
AcDbCircle
 10
8979.3739852703
 20
6611.8461538462
 30
0.0
 40
6.5
100
AcDbArc
 50
270.0
 51
0.0
  0
LINE
  5
AC
330
1F
100
AcDbEntity
  8
0
  6
Continuous
 62
     7
370
    25
100
AcDbLine
 10
8890.3739852703
 20
6605.3461538462
 30
0.0
 11
8979.3739852703
 21
6605.3461538462
 31
0.0
  0
ARC
  5
AD
330
1F
100
AcDbEntity
  8
0
  6
Continuous
 62
     7
370
    25
100
AcDbCircle
 10
8890.3739852703
 20
6611.8461538462
 30
0.0
 40
6.5
100
AcDbArc
 50
180.0
 51
270.0
  0
LINE
  5
AE
330
1F
100
AcDbEntity
  8
0
  6
Continuous
 62
     7
370
    25
100
AcDbLine
 10
8883.8739852703
 20
6820.8461538462
 30
0.0
 11
8883.8739852703
 21
6611.8461538462
 31
0.0
  0
ARC
  5
AF
330
1F
100
AcDbEntity
  8
0
  6
Continuous
 62
     7
370
    25
100
AcDbCircle
 10
8890.3739852703
 20
6820.8461538462
 30
0.0
 40
6.500000000001819
100
AcDbArc
 50
90.0
 51
180.0
  0
ARC
  5
B0
330
1F
100
AcDbEntity
  8
0
  6
Continuous
 62
     7
370
    25
100
AcDbCircle
 10
8979.3739852703
 20
6611.8461538462
 30
0.0
 40
11.0
100
AcDbArc
 50
270.0
 51
0.0
  0
LINE
  5
B1
330
1F
100
AcDbEntity
  8
0
  6
Continuous
 62
     7
370
    25
100
AcDbLine
 10
8979.3739852703
 20
6600.8461538462
 30
0.0
 11
8979.3739852703
 21
6605.3461538462
 31
0.0
  0
LINE
  5
B2
330
1F
100
AcDbEntity
  8
0
  6
Continuous
 62
     7
370
    25
100
AcDbLine
 10
8985.8739852703
 20
6611.8461538462
 30
0.0
 11
8990.3739852703
 21
6611.8461538462
 31
0.0
  0
LINE
  5
B3
330
1F
100
AcDbEntity
  8
0
  6
Continuous
 62
     7
370
    25
100
AcDbLine
 10
8979.3739852703
 20
6827.3461538462
 30
0.0
 11
8979.3739852703
 21
6831.8461538462
 31
0.0
  0
LINE
  5
B4
330
1F
100
AcDbEntity
  8
0
  6
Continuous
 62
     7
370
    25
100
AcDbLine
 10
8890.3739852703
 20
6831.8461538462
 30
0.0
 11
8890.3739852703
 21
6827.3461538462
 31
0.0
  0
LINE
  5
B5
330
1F
100
AcDbEntity
  8
0
  6
Continuous
 62
     7
370
    25
100
AcDbLine
 10
8890.3739852703
 20
6831.8461538462
 30
0.0
 11
8979.3739852703
 21
6831.8461538462
 31
0.0
  0
LINE
  5
B6
330
1F
100
AcDbEntity
  8
0
  6
Continuous
 62
     7
370
    25
100
AcDbLine
 10
8990.3739852703
 20
6820.8461538462
 30
0.0
 11
8985.8739852703
 21
6820.8461538462
 31
0.0
  0
LINE
  5
B7
330
1F
100
AcDbEntity
  8
0
  6
Continuous
 62
     7
370
    25
100
AcDbLine
 10
8990.3739852703
 20
6820.8461538462
 30
0.0
 11
8990.3739852703
 21
6611.8461538462
 31
0.0
  0
LINE
  5
B8
330
1F
100
AcDbEntity
  8
0
  6
Continuous
 62
     7
370
    25
100
AcDbLine
 10
8883.8739852703
 20
6820.8461538462
 30
0.0
 11
8879.3739852703
 21
6820.8461538462
 31
0.0
  0
LINE
  5
B9
330
1F
100
AcDbEntity
  8
0
  6
Continuous
 62
     7
370
    25
100
AcDbLine
 10
8879.3739852703
 20
6611.8461538462
 30
0.0
 11
8883.8739852703
 21
6611.8461538462
 31
0.0
  0
LINE
  5
BA
330
1F
100
AcDbEntity
  8
0
  6
Continuous
 62
     7
370
    25
100
AcDbLine
 10
8879.3739852703
 20
6611.8461538462
 30
0.0
 11
8879.3739852703
 21
6820.8461538462
 31
0.0
  0
ARC
  5
BB
330
1F
100
AcDbEntity
  8
0
  6
Continuous
 62
     7
370
    25
100
AcDbCircle
 10
8890.3739852703
 20
6611.8461538462
 30
0.0
 40
11.0
100
AcDbArc
 50
180.0
 51
270.0
  0
LINE
  5
BC
330
1F
100
AcDbEntity
  8
0
  6
Continuous
 62
     7
370
    25
100
AcDbLine
 10
8890.3739852703
 20
6605.3461538462
 30
0.0
 11
8890.3739852703
 21
6600.8461538462
 31
0.0
  0
ARC
  5
BD
330
1F
100
AcDbEntity
  8
0
  6
Continuous
 62
     7
370
    25
100
AcDbCircle
 10
8890.3739852703
 20
6820.8461538462
 30
0.0
 40
11.00000000000182
100
AcDbArc
 50
90.0
 51
180.0
  0
ARC
  5
BE
330
1F
100
AcDbEntity
  8
0
  6
Continuous
 62
     7
370
    25
100
AcDbCircle
 10
8979.3739852703
 20
6820.8461538462
 30
0.0
 40
11.0
100
AcDbArc
 50
0.0
 51
90.0
  0
LINE
  5
BF
330
1F
100
AcDbEntity
  8
0
  6
Continuous
 62
     7
370
    25
100
AcDbLine
 10
8979.3739852703
 20
6600.8461538462
 30
0.0
 11
8890.3739852703
 21
6600.8461538462
 31
0.0
  0
LINE
  5
C0
330
1F
100
AcDbEntity
  8
0
  6
Continuous
 62
     8
370
    25
100
AcDbLine
 10
8951.8839535784
 20
6661.3497261973
 30
0.0
 11
8950.8739852703
 21
6661.3497261973
 31
0.0
  0
LINE
  5
C1
330
1F
100
AcDbEntity
  8
0
  6
Continuous
 62
     8
370
    25
100
AcDbLine
 10
8918.8739852703
 20
6661.3497261973
 30
0.0
 11
8917.8640169622
 21
6661.3497261973
 31
0.0
  0
SPLINE
  5
C2
330
1F
100
AcDbEntity
  8
0
  6
Continuous
 62
     8
370
    25
100
AcDbSpline
210
0.0
220
0.0
230
1.0
 70
     8
 71
     3
 72
    10
 73
     6
 74
     0
 42
0.00000001
 43
0.00000001
 40
0.0
 40
0.0
 40
0.0
 40
0.0
 40
0.4914151294364254
 40
0.7448942069251835
 40
1.0
 40
1.0
 40
1.0
 40
1.0
 10
8950.873985270297
 20
6658.531526772621
 30
0.0
 10
8951.131612999121
 20
6659.045490269486
 30
0.0
 10
8951.522128860863
 20
6659.824563620005
 30
0.0
 10
8951.775793554687
 20
6660.764698686624
 30
0.0
 10
8951.847823440952
 20
6661.154301643629
 30
0.0
 10
8951.883953578366
 20
6661.349726197294
 30
0.0
  0
SPLINE
  5
C3
330
1F
100
AcDbEntity
  8
0
  6
Continuous
 62
     8
370
    25
100
AcDbSpline
210
0.0
220
0.0
230
1.0
 70
     8
 71
     3
 72
     9
 73
     5
 74
     0
 42
0.00000001
 43
0.00000001
 40
0.0
 40
0.0
 40
0.0
 40
0.0
 40
0.558496451880779
 40
0.9999999999999999
 40
0.9999999999999999
 40
0.9999999999999999
 40
0.9999999999999999
 10
8917.864016962227
 20
6661.349726197294
 30
0.0
 10
8917.955573071975
 20
6660.876452053876
 30
0.0
 10
8918.119506270548
 20
6660.029044443989
 30
0.0
 10
8918.642903525264
 20
6658.951610471676
 30
0.0
 10
8918.873985270297
 20
6658.475919550036
 30
0.0
  0
LINE
  5
C4
330
1F
100
AcDbEntity
  8
0
  6
Continuous
 62
     8
370
    25
100
AcDbLine
 10
8917.8640169622
 20
6737.092581495
 30
0.0
 11
8918.8739852703
 21
6737.092581495
 31
0.0
  0
LINE
  5
C5
330
1F
100
AcDbEntity
  8
0
  6
Continuous
 62
     8
370
    25
100
AcDbLine
 10
8950.8739852703
 20
6737.092581495
 30
0.0
 11
8951.8839535784
 21
6737.092581495
 31
0.0
  0
SPLINE
  5
C6
330
1F
100
AcDbEntity
  8
0
  6
Continuous
 62
     8
370
    25
100
AcDbSpline
210
0.0
220
0.0
230
1.0
 70
     8
 71
     3
 72
    10
 73
     6
 74
     0
 42
0.00000001
 43
0.00000001
 40
0.0
 40
0.0
 40
0.0
 40
0.0
 40
0.4914151294381331
 40
0.7448942069259354
 40
0.9999999999999999
 40
0.9999999999999999
 40
0.9999999999999999
 40
0.9999999999999999
 10
8918.873985270297
 20
6739.910780919682
 30
0.0
 10
8918.616357541472
 20
6739.396817422816
 30
0.0
 10
8918.22584167973
 20
6738.617744072298
 30
0.0
 10
8917.972176985908
 20
6737.677609005685
 30
0.0
 10
8917.900147099643
 20
6737.288006048679
 30
0.0
 10
8917.864016962227
 20
6737.092581495012
 30
0.0
  0
SPLINE
  5
C7
330
1F
100
AcDbEntity
  8
0
  6
Continuous
 62
     8
370
    25
100
AcDbSpline
210
0.0
220
0.0
230
1.0
 70
     8
 71
     3
 72
     9
 73
     5
 74
     0
 42
0.00000001
 43
0.00000001
 40
0.0
 40
0.0
 40
0.0
 40
0.0
 40
0.5584964518800876
 40
1.0
 40
1.0
 40
1.0
 40
1.0
 10
8951.883953578368
 20
6737.092581495014
 30
0.0
 10
8951.792397468618
 20
6737.565855638431
 30
0.0
 10
8951.628464270047
 20
6738.413263248316
 30
0.0
 10
8951.10506701533
 20
6739.490697220631
 30
0.0
 10
8950.873985270297
 20
6739.966388142272
 30
0.0
  0
SPLINE
  5
C8
330
1F
100
AcDbEntity
  8
0
  6
Continuous
 62
     8
370
    25
100
AcDbSpline
210
0.0
220
0.0
230
1.0
 70
     8
 71
     3
 72
     9
 73
     5
 74
     0
 42
0.00000001
 43
0.00000001
 40
0.0
 40
0.0
 40
0.0
 40
0.0
 40
0.3625971247099225
 40
0.9999999999999999
 40
0.9999999999999999
 40
0.9999999999999999
 40
0.9999999999999999
 10
8925.00296697392
 20
6618.343149092817
 30
0.0
 10
8924.969060480404
 20
6618.359533680517
 30
0.0
 10
8924.87555038006
 20
6618.404720436238
 30
0.0
 10
8925.314555117204
 20
6618.195419602211
 30
0.0
 10
8925.594377998925
 20
6618.062010648801
 30
0.0
  0
SPLINE
  5
C9
330
1F
100
AcDbEntity
  8
0
  6
Continuous
 62
     8
370
    25
100
AcDbSpline
210
0.0
220
0.0
230
1.0
 70
     8
 71
     3
 72
     9
 73
     5
 74
     0
 42
0.00000001
 43
0.00000001
 40
0.0
 40
0.0
 40
0.0
 40
0.0
 40
0.317659942033013
 40
1.0
 40
1.0
 40
1.0
 40
1.0
 10
8944.15359254168
 20
6618.062010648809
 30
0.0
 10
8944.294419008282
 20
6618.12780154082
 30
0.0
 10
8944.737743607851
 20
6618.334912615609
 30
0.0
 10
8944.760885715052
 20
6618.349473786258
 30
0.0
 10
8944.776676501819
 20
6618.359409456284
 30
0.0
  0
ARC
  5
CA
330
1F
100
AcDbEntity
  8
0
  6
Continuous
 62
     7
370
    25
100
AcDbCircle
 10
9546.1526323683
 20
6730.5373941225
 30
0.0
 40
33.99168952671258
100
AcDbArc
 50
153.1167025033
 51
168.8810350117
  0
ARC
  5
CB
330
1F
100
AcDbEntity
  8
0
  6
Continuous
 62
     7
370
    25
100
AcDbCircle
 10
9445.1692533148
 20
6667.9049135698
 30
0.0
 40
33.9916895267142
100
AcDbArc
 50
333.1167025033
 51
348.8810350118
  0
ARC
  5
CC
330
1F
100
AcDbEntity
  8
0
  6
Continuous
 62
     7
370
    25
100
AcDbCircle
 10
9546.1526323683
 20
6667.9049135698
 30
0.0
 40
33.99168952671403
100
AcDbArc
 50
191.1189649882
 51
206.8907496214
  0
ARC
  5
CD
330
1F
100
AcDbEntity
  8
0
  6
Continuous
 62
     7
370
    25
100
AcDbCircle
 10
9445.1692533148
 20
6730.5373941225
 30
0.0
 40
33.99168952671386
100
AcDbArc
 50
11.1189649883
 51
26.8907496214
  0
ARC
  5
CE
330
1F
100
AcDbEntity
  8
0
  6
Continuous
 62
     7
370
    25
100
AcDbCircle
 10
9479.5041098197
 20
6737.2854282603
 30
0.0
 40
0.9999999999991305
100
AcDbArc
 50
191.1189649882
 51
249.930058606
  0
ARC
  5
CF
330
1F
100
AcDbEntity
  8
0
  6
Continuous
 62
     7
370
    25
100
AcDbCircle
 10
9511.8177758634
 20
6737.2854282603
 30
0.0
 40
1.000000000000758
100
AcDbArc
 50
290.069941394
 51
348.8810350118
  0
ARC
  5
D0
330
1F
100
AcDbEntity
  8
0
  6
Continuous
 62
     7
370
    25
100
AcDbCircle
 10
9479.5041098197
 20
6661.156879432
 30
0.0
 40
1.000000000000609
100
AcDbArc
 50
110.0699413941
 51
168.8810350117
  0
ARC
  5
D1
330
1F
100
AcDbEntity
  8
0
  6
Continuous
 62
     7
370
    25
100
AcDbCircle
 10
9511.8177758634
 20
6661.156879432
 30
0.0
 40
1.000000000000933
100
AcDbArc
 50
11.1189649883
 51
69.930058606
  0
LINE
  5
D2
330
1F
100
AcDbEntity
  8
0
  6
Continuous
 62
     7
370
    25
100
AcDbLine
 10
9512.1609428415
 20
6662.0961538462
 30
0.0
 11
9512.1609428415
 21
6736.3461538462
 31
0.0
  0
LINE
  5
D3
330
1F
100
AcDbEntity
  8
0
  6
Continuous
 62
     7
370
    25
100
AcDbLine
 10
9479.1609428415
 20
6736.3461538462
 30
0.0
 11
9479.1609428415
 21
6662.0961538462
 31
0.0
  0
LINE
  5
D4
330
1F
100
AcDbEntity
  8
0
  6
Continuous
 62
     7
370
    25
100
AcDbLine
 10
9524.7104207091
 20
6751.3461538462
 30
0.0
 11
9897.7859428416
 21
6751.3461538462
 31
0.0
  0
LINE
  5
D5
330
1F
100
AcDbEntity
  8
0
  6
Continuous
 62
     7
370
    25
100
AcDbLine
 10
9199.9109428416
 20
6751.3461538462
 30
0.0
 11
9466.611464974
 21
6751.3461538462
 31
0.0
  0
LINE
  5
D6
330
1F
100
AcDbEntity
  8
0
  6
Continuous
 62
     7
370
    25
100
AcDbLine
 10
9897.7859428416
 20
6783.3461538462
 30
0.0
 11
9199.9109428416
 21
6783.3461538462
 31
0.0
  0
LINE
  5
D7
330
1F
100
AcDbEntity
  8
0
  6
Continuous
 62
     7
370
    25
100
AcDbLine
 10
9466.611464974
 20
6647.0961538462
 30
0.0
 11
9199.9109428416
 21
6647.0961538462
 31
0.0
  0
LINE
  5
D8
330
1F
100
AcDbEntity
  8
0
  6
Continuous
 62
     7
370
    25
100
AcDbLine
 10
9897.7859428416
 20
6647.0961538462
 30
0.0
 11
9524.7104207091
 21
6647.0961538462
 31
0.0
  0
LINE
  5
D9
330
1F
100
AcDbEntity
  8
0
  6
Continuous
 62
     7
370
    25
100
AcDbLine
 10
9505.5949152772
 20
6615.0961538462
 30
0.0
 11
9897.7859428416
 21
6615.0961538462
 31
0.0
  0
LINE
  5
DA
330
1F
100
AcDbEntity
  8
0
  6
Continuous
 62
     7
370
    25
100
AcDbLine
 10
9199.9109428416
 20
6615.0961538462
 30
0.0
 11
9485.6609428416
 21
6615.0961538462
 31
0.0
  0
ARC
  5
DB
330
1F
100
AcDbEntity
  8
0
  6
Continuous
 62
     7
370
    25
100
AcDbCircle
 10
9897.7859428416
 20
6699.2211538462
 30
0.0
 40
52.125
100
AcDbArc
 50
270.0
 51
90.0
  0
ARC
  5
DC
330
1F
100
AcDbEntity
  8
0
  6
Continuous
 62
     7
370
    25
100
AcDbCircle
 10
9897.7859428416
 20
6699.2211538462
 30
0.0
 40
84.125
100
AcDbArc
 50
270.0
 51
90.0
  0
SPLINE
  5
DD
330
1F
100
AcDbEntity
  8
0
  6
Continuous
 62
     7
370
    25
100
AcDbSpline
210
0.0
220
0.0
230
1.0
 70
     8
 71
     3
 72
    12
 73
     8
 74
     0
 42
0.00000001
 43
0.00000001
 40
0.0
 40
0.0
 40
0.0
 40
0.0
 40
0.3175121699895829
 40
0.5763704814997781
 40
0.7936369896102503
 40
0.9763540294094982
 40
1.0
 40
1.0
 40
1.0
 40
1.0
 10
9485.66468609668
 20
6615.099158726713
 30
0.0
 10
9485.800259129026
 20
6614.908394591701
 30
0.0
 10
9486.046360857772
 20
6614.562106081396
 30
0.0
 10
9486.555037830653
 20
6614.25641013049
 30
0.0
 10
9487.01685745935
 20
6614.120613133473
 30
0.0
 10
9487.328745901263
 20
6614.08367101481
 30
0.0
 10
9487.478380791998
 20
6614.100970536269
 30
0.0
 10
9487.495526608096
 20
6614.102952790623
 30
0.0
  0
SPLINE
  5
DE
330
1F
100
AcDbEntity
  8
0
  6
Continuous
 62
     7
370
    25
100
AcDbSpline
210
0.0
220
0.0
230
1.0
 70
     8
 71
     3
 72
    12
 73
     8
 74
     0
 42
0.00000001
 43
0.00000001
 40
0.0
 40
0.0
 40
0.0
 40
0.0
 40
0.0362638046862095
 40
0.3338868184092847
 40
0.6463500782131547
 40
0.9698243148081681
 40
1.0
 40
1.0
 40
1.0
 40
1.0
 10
9503.825472954395
 20
6614.108210257154
 30
0.0
 10
9503.851772525984
 20
6614.104102558649
 30
0.0
 10
9504.093917010245
 20
6614.066282302425
 30
0.0
 10
9504.579237374599
 20
6614.17281649203
 30
0.0
 10
9505.174934289957
 20
6614.495938885701
 30
0.0
 10
9505.558463287827
 20
6614.848721437447
 30
0.0
 10
9505.648754642265
 20
6615.092265812244
 30
0.0
 10
9505.65645888117
 20
6615.113046584222
 30
0.0
  0
LINE
  5
DF
330
1F
100
AcDbEntity
  8
0
  6
Continuous
 62
     7
370
    25
100
AcDbLine
 10
9487.4909081978
 20
6614.0961538462
 30
0.0
 11
9503.8309774853
 21
6614.0961538462
 31
0.0
  0
SPLINE
  5
E0
330
1F
100
AcDbEntity
  8
0
  6
Continuous
 62
     7
370
    25
100
AcDbSpline
210
0.0
220
0.0
230
1.0
 70
     8
 71
     3
 72
    14
 73
    10
 74
     0
 42
0.00000001
 43
0.00000001
 40
0.0
 40
0.0
 40
0.0
 40
0.0
 40
0.1503869050430234
 40
0.3041877639754088
 40
0.4671465828053689
 40
0.6205781908564796
 40
0.7656555327478707
 40
0.9032038093418165
 40
1.0
 40
1.0
 40
1.0
 40
1.0
 10
9466.608808443641
 20
6751.346680940941
 30
0.0
 10
9467.157712803182
 20
6751.320624408883
 30
0.0
 10
9468.267982275891
 20
6751.267919831837
 30
0.0
 10
9469.925757817053
 20
6750.827457410409
 30
0.0
 10
9471.496346564616
 20
6750.123354926706
 30
0.0
 10
9472.895850180435
 20
6749.172845336408
 30
0.0
 10
9474.04698891392
 20
6748.069955921304
 30
0.0
 10
9474.911202527705
 20
6746.978672278173
 30
0.0
 10
9475.308869586555
 20
6746.221206139038
 30
0.0
 10
9475.473126318957
 20
6745.90833407647
 30
0.0
  0
SPLINE
  5
E1
330
1F
100
AcDbEntity
  8
0
  6
Continuous
 62
     7
370
    25
100
AcDbSpline
210
0.0
220
0.0
230
1.0
 70
     8
 71
     3
 72
    14
 73
    10
 74
     0
 42
0.00000001
 43
0.00000001
 40
0.0
 40
0.0
 40
0.0
 40
0.0
 40
0.1224430500828644
 40
0.2712846549047382
 40
0.4230208026892015
 40
0.5763157103013918
 40
0.745541917209568
 40
0.9044645524639514
 40
1.0
 40
1.0
 40
1.0
 40
1.0
 10
9515.84509833746
 20
6745.909465290262
 30
0.0
 10
9516.059139235524
 20
6746.302018099812
 30
0.0
 10
9516.533367957585
 20
6747.171757569698
 30
0.0
 10
9517.536434030528
 20
6748.357263273334
 30
0.0
 10
9518.784885023642
 20
6749.450628005139
 30
0.0
 10
9520.267280557151
 20
6750.359214504309
 30
0.0
 10
9521.910856099847
 20
6750.992415154212
 30
0.0
 10
9523.43382247968
 20
6751.321429189386
 30
0.0
 10
9524.36282288534
 20
6751.318839749417
 30
0.0
 10
9524.711613022177
 20
6751.317867552726
 30
0.0
  0
SPLINE
  5
E2
330
1F
100
AcDbEntity
  8
0
  6
Continuous
 62
     7
370
    25
100
AcDbSpline
210
0.0
220
0.0
230
1.0
 70
     8
 71
     3
 72
    14
 73
    10
 74
     0
 42
0.00000001
 43
0.00000001
 40
0.0
 40
0.0
 40
0.0
 40
0.0
 40
0.1224430501966787
 40
0.2712846549907647
 40
0.4230208027957928
 40
0.5763157104013565
 40
0.7455419173202615
 40
0.9044645525696797
 40
1.0
 40
1.0
 40
1.0
 40
1.0
 10
9475.476787345671
 20
6652.53284240203
 30
0.0
 10
9475.262746447379
 20
6652.140289592132
 30
0.0
 10
9474.788517725097
 20
6651.270550122005
 30
0.0
 10
9473.785451651793
 20
6650.085044418171
 30
0.0
 10
9472.537000658596
 20
6648.991679686533
 30
0.0
 10
9471.05460512491
 20
6648.083093187479
 30
0.0
 10
9469.411029582141
 20
6647.449892537778
 30
0.0
 10
9467.888063202632
 20
6647.120878502828
 30
0.0
 10
9466.95906279738
 20
6647.123467942879
 30
0.0
 10
9466.610272660928
 20
6647.124440139601
 30
0.0
  0
SPLINE
  5
E3
330
1F
100
AcDbEntity
  8
0
  6
Continuous
 62
     7
370
    25
100
AcDbSpline
210
0.0
220
0.0
230
1.0
 70
     8
 71
     3
 72
    14
 73
    10
 74
     0
 42
0.00000001
 43
0.00000001
 40
0.0
 40
0.0
 40
0.0
 40
0.0
 40
0.1503869050418459
 40
0.3041877639796164
 40
0.4671465828183125
 40
0.6205781908390454
 40
0.7656555327445573
 40
0.9032038093543941
 40
0.9999999999999999
 40
0.9999999999999999
 40
0.9999999999999999
 40
0.9999999999999999
 10
9524.713077239458
 20
6647.095626751372
 30
0.0
 10
9524.16417287992
 20
6647.121683283426
 30
0.0
 10
9523.053903407195
 20
6647.174387860468
 30
0.0
 10
9521.39612786599
 20
6647.614850281913
 30
0.0
 10
9519.825539118488
 20
6648.318952765607
 30
0.0
 10
9518.42603550269
 20
6649.269462355884
 30
0.0
 10
9517.274896769193
 20
6650.372351770976
 30
0.0
 10
9516.41068315537
 20
6651.46363541416
 30
0.0
 10
9516.01301609652
 20
6652.221101553308
 30
0.0
 10
9515.848759364144
 20
6652.533973615838
 30
0.0
  0
ARC
  5
E4
330
1F
100
AcDbEntity
  8
0
  6
Continuous
 62
     7
370
    25
100
AcDbCircle
 10
9617.9250466485
 20
6863.2464817399
 30
0.0
 40
174.2305207550382
100
AcDbArc
 50
225.8446319291
 51
226.3909689237
  0
SPLINE
  5
E5
330
1F
100
AcDbEntity
  8
0
  6
Continuous
 62
     7
370
    25
100
AcDbSpline
210
0.0
220
0.0
230
1.0
 70
     8
 71
     3
 72
    12
 73
     8
 74
     0
 42
0.00000001
 43
0.00000001
 40
0.0
 40
0.0
 40
0.0
 40
0.0
 40
0.1242541371532397
 40
0.2495433884689144
 40
0.5011727993614731
 40
0.7497427018107342
 40
1.0
 40
1.0
 40
1.0
 40
1.0
 10
9496.55494444091
 20
6738.244191150138
 30
0.0
 10
9497.044075682108
 20
6739.00741784917
 30
0.0
 10
9498.02641293165
 20
6740.540229399831
 30
0.0
 10
9499.748160278701
 20
6743.773533448591
 30
0.0
 10
9501.98949752235
 20
6747.750130955677
 30
0.0
 10
9504.761616163983
 20
6752.436469629239
 30
0.0
 10
9506.718715997704
 20
6755.406053129577
 30
0.0
 10
9507.700576080808
 20
6756.8958675234
 30
0.0
  0
SPLINE
  5
E6
330
1F
100
AcDbEntity
  8
0
  6
Continuous
 62
     7
370
    25
100
AcDbSpline
210
0.0
220
0.0
230
1.0
 70
     8
 71
     3
 72
    15
 73
    11
 74
     0
 42
0.00000001
 43
0.00000001
 40
0.0
 40
0.0
 40
0.0
 40
0.0
 40
0.0888068580135353
 40
0.3025953790993348
 40
0.4799126900651135
 40
0.6066537708120873
 40
0.6535868552446925
 40
0.7687375664858229
 40
0.8138850961825005
 40
1.0
 40
1.0
 40
1.0
 40
1.0
 10
9516.410282591347
 20
6749.657202880783
 30
0.0
 10
9516.40883524411
 20
6749.905807135835
 30
0.0
 10
9516.403903636405
 20
6750.75288697275
 30
0.0
 10
9516.00278932821
 20
6752.548822071682
 30
0.0
 10
9514.996857580049
 20
6754.655083512528
 30
0.0
 10
9513.838100808915
 20
6755.938302730407
 30
0.0
 10
9512.644487732854
 20
6756.749523591177
 30
0.0
 10
9511.631229879642
 20
6757.12165379464
 30
0.0
 10
9509.855755313638
 20
6757.350459883076
 30
0.0
 10
9508.661603285092
 20
6757.098577171792
 30
0.0
 10
9507.700576080808
 20
6756.8958675234
 30
0.0
  0
SPLINE
  5
E7
330
1F
100
AcDbEntity
  8
0
  6
Continuous
 62
     7
370
    25
100
AcDbSpline
210
0.0
220
0.0
230
1.0
 70
     8
 71
     3
 72
    13
 73
     9
 74
     0
 42
0.00000001
 43
0.00000001
 40
0.0
 40
0.0
 40
0.0
 40
0.0
 40
0.244940575703397
 40
0.491794464332062
 40
0.6782907207319485
 40
0.8681904758509329
 40
0.933884440652718
 40
1.0
 40
1.0
 40
1.0
 40
1.0
 10
9516.410282591347
 20
6749.657202880783
 30
0.0
 10
9515.133369846291
 20
6748.531943632865
 30
0.0
 10
9512.56956996279
 20
6746.272635359924
 30
0.0
 10
9508.620426446867
 20
6743.25568268451
 30
0.0
 10
9504.635742465663
 20
6740.613312617019
 30
0.0
 10
9501.579126271678
 20
6738.850716419985
 30
0.0
 10
9499.254063405664
 20
6737.676748175025
 30
0.0
 10
9498.254012890742
 20
6737.287718493915
 30
0.0
 10
9497.752388295732
 20
6737.092581495012
 30
0.0
  0
SPLINE
  5
E8
330
1F
100
AcDbEntity
  8
0
  6
Continuous
 62
     7
370
    25
100
AcDbSpline
210
0.0
220
0.0
230
1.0
 70
     8
 71
     3
 72
    13
 73
     9
 74
     0
 42
0.00000001
 43
0.00000001
 40
0.0
 40
0.0
 40
0.0
 40
0.0
 40
0.2449405757048232
 40
0.4917944643349598
 40
0.6782907207330509
 40
0.8681904758501544
 40
0.9338844406523513
 40
1.0
 40
1.0
 40
1.0
 40
1.0
 10
9474.911603091754
 20
6648.785104811524
 30
0.0
 10
9476.188515836815
 20
6649.91036405945
 30
0.0
 10
9478.752315720332
 20
6652.169672332404
 30
0.0
 10
9482.701459236267
 20
6655.186625007823
 30
0.0
 10
9486.686143217463
 20
6657.828995075304
 30
0.0
 10
9489.742759411427
 20
6659.591591272323
 30
0.0
 10
9492.067822277435
 20
6660.765559517284
 30
0.0
 10
9493.067872792364
 20
6661.154589198392
 30
0.0
 10
9493.569497387376
 20
6661.349726197294
 30
0.0
  0
ARC
  5
E9
330
1F
100
AcDbEntity
  8
0
  6
Continuous
 62
     7
370
    25
100
AcDbCircle
 10
9373.3968392953
 20
6535.1958262233
 30
0.0
 40
174.2305203790233
100
AcDbArc
 50
45.8446319285
 51
46.3909689243
  0
SPLINE
  5
EA
330
1F
100
AcDbEntity
  8
0
  6
Continuous
 62
     7
370
    25
100
AcDbSpline
210
0.0
220
0.0
230
1.0
 70
     8
 71
     3
 72
    12
 73
     8
 74
     0
 42
0.00000001
 43
0.00000001
 40
0.0
 40
0.0
 40
0.0
 40
0.0
 40
0.1242541371524052
 40
0.2495433884672661
 40
0.501172799358191
 40
0.7497427018090802
 40
1.0
 40
1.0
 40
1.0
 40
1.0
 10
9494.766941242196
 20
6660.198116542172
 30
0.0
 10
9494.277810001
 20
6659.434889843147
 30
0.0
 10
9493.29547275146
 20
6657.902078292497
 30
0.0
 10
9491.573725404422
 20
6654.668774243756
 30
0.0
 10
9489.332388160774
 20
6650.692176736674
 30
0.0
 10
9486.560269519136
 20
6646.005838063098
 30
0.0
 10
9484.603169685402
 20
6643.036254562739
 30
0.0
 10
9483.62130960229
 20
6641.546440168906
 30
0.0
  0
SPLINE
  5
EB
330
1F
100
AcDbEntity
  8
0
  6
Continuous
 62
     7
370
    25
100
AcDbSpline
210
0.0
220
0.0
230
1.0
 70
     8
 71
     3
 72
    15
 73
    11
 74
     0
 42
0.00000001
 43
0.00000001
 40
0.0
 40
0.0
 40
0.0
 40
0.0
 40
0.0888068580135763
 40
0.3025953790993664
 40
0.4799126900651393
 40
0.6066537708121036
 40
0.6535868552447157
 40
0.7687375664858308
 40
0.8138850961825077
 40
1.0
 40
1.0
 40
1.0
 40
1.0
 10
9474.911603091754
 20
6648.785104811524
 30
0.0
 10
9474.913050438987
 20
6648.536500556472
 30
0.0
 10
9474.917982046692
 20
6647.689420719556
 30
0.0
 10
9475.31909635489
 20
6645.893485620623
 30
0.0
 10
9476.325028103052
 20
6643.787224179778
 30
0.0
 10
9477.483784874184
 20
6642.504004961899
 30
0.0
 10
9478.677397950245
 20
6641.692784101128
 30
0.0
 10
9479.690655803457
 20
6641.320653897666
 30
0.0
 10
9481.466130369461
 20
6641.091847809229
 30
0.0
 10
9482.660282398005
 20
6641.343730520513
 30
0.0
 10
9483.62130960229
 20
6641.546440168906
 30
0.0
  0
ARC
  5
EC
330
1F
100
AcDbEntity
  8
0
  6
Continuous
 62
     7
370
    25
100
AcDbCircle
 10
9617.92504649
 20
6535.195826117
 30
0.0
 40
174.2305205265765
100
AcDbArc
 50
133.6090310759
 51
134.1553680712
  0
SPLINE
  5
ED
330
1F
100
AcDbEntity
  8
0
  6
Continuous
 62
     7
370
    25
100
AcDbSpline
210
0.0
220
0.0
230
1.0
 70
     8
 71
     3
 72
    13
 73
     9
 74
     0
 42
0.00000001
 43
0.00000001
 40
0.0
 40
0.0
 40
0.0
 40
0.0
 40
0.1477886977166114
 40
0.2993880278142619
 40
0.4035292213726656
 40
0.5082052406170378
 40
0.7527514138923989
 40
1.0
 40
1.0
 40
1.0
 40
1.0
 10
9497.752388295721
 20
6661.349726197294
 30
0.0
 10
9498.857041901498
 20
6660.873247449708
 30
0.0
 10
9501.09483186488
 20
6659.908004269823
 30
0.0
 10
9503.86382826907
 20
6658.263313709029
 30
0.0
 10
9506.234547204893
 20
6656.772984072079
 30
0.0
 10
9509.080993088754
 20
6654.832239324835
 30
0.0
 10
9512.557404091956
 20
6652.180381652839
 30
0.0
 10
9515.121293566235
 20
6649.921002189642
 30
0.0
 10
9516.410282591347
 20
6648.785104811524
 30
0.0
  0
SPLINE
  5
EE
330
1F
100
AcDbEntity
  8
0
  6
Continuous
 62
     7
370
    25
100
AcDbSpline
210
0.0
220
0.0
230
1.0
 70
     8
 71
     3
 72
    15
 73
    11
 74
     0
 42
0.00000001
 43
0.00000001
 40
0.0
 40
0.0
 40
0.0
 40
0.0
 40
0.0522126387663923
 40
0.2276403401238222
 40
0.3607065504311405
 40
0.379486018366218
 40
0.5294866395842085
 40
0.5615296998323347
 40
0.7804170146585374
 40
1.0
 40
1.0
 40
1.0
 40
1.0
 10
9507.70057608081
 20
6641.546440168906
 30
0.0
 10
9507.96335470137
 20
6641.479210594807
 30
0.0
 10
9509.109035440262
 20
6641.186098362295
 30
0.0
 10
9511.030239591815
 20
6641.072364899817
 30
0.0
 10
9512.630418296741
 20
6641.68867301239
 30
0.0
 10
9513.874081819908
 20
6642.531433252001
 30
0.0
 10
9514.545860575576
 20
6643.274705160697
 30
0.0
 10
9515.54268729678
 20
6644.82975228384
 30
0.0
 10
9516.296258099248
 20
6646.7933530687
 30
0.0
 10
9516.372234246433
 20
6648.120485694229
 30
0.0
 10
9516.410282591347
 20
6648.785104811524
 30
0.0
  0
SPLINE
  5
EF
330
1F
100
AcDbEntity
  8
0
  6
Continuous
 62
     7
370
    25
100
AcDbSpline
210
0.0
220
0.0
230
1.0
 70
     8
 71
     3
 72
    12
 73
     8
 74
     0
 42
0.00000001
 43
0.00000001
 40
0.0
 40
0.0
 40
0.0
 40
0.0
 40
0.2485491050566061
 40
0.4987657561785188
 40
0.7484563825827234
 40
0.8744997800940784
 40
1.0
 40
1.0
 40
1.0
 40
1.0
 10
9507.70057608081
 20
6641.546440168906
 30
0.0
 10
9506.724298166435
 20
6643.025627718307
 30
0.0
 10
9504.765192370854
 20
6645.993926865629
 30
0.0
 10
9502.013786429123
 20
6650.675863031198
 30
0.0
 10
9499.72574239424
 20
6654.630794848392
 30
0.0
 10
9498.095023788012
 20
6657.915798703391
 30
0.0
 10
9497.067564665931
 20
6659.438439914925
 30
0.0
 10
9496.5549444409
 20
6660.198116542172
 30
0.0
  0
ARC
  5
F0
330
1F
100
AcDbEntity
  8
0
  6
Continuous
 62
     7
370
    25
100
AcDbCircle
 10
9373.3968391576
 20
6863.2464816123
 30
0.0
 40
174.2305205777998
100
AcDbArc
 50
313.6090310759
 51
314.1553680711
  0
SPLINE
  5
F1
330
1F
100
AcDbEntity
  8
0
  6
Continuous
 62
     7
370
    25
100
AcDbSpline
210
0.0
220
0.0
230
1.0
 70
     8
 71
     3
 72
    13
 73
     9
 74
     0
 42
0.00000001
 43
0.00000001
 40
0.0
 40
0.0
 40
0.0
 40
0.0
 40
0.1477886977167976
 40
0.2993880278145563
 40
0.403529221374371
 40
0.5082052406201757
 40
0.7527514138940028
 40
1.0
 40
1.0
 40
1.0
 40
1.0
 10
9493.569497387365
 20
6737.092581495012
 30
0.0
 10
9492.46484378159
 20
6737.5690602426
 30
0.0
 10
9490.22705381821
 20
6738.534303422491
 30
0.0
 10
9487.45805741401
 20
6740.178993983288
 30
0.0
 10
9485.087338478173
 20
6741.669323620251
 30
0.0
 10
9482.24089259431
 20
6743.610068367499
 30
0.0
 10
9478.764481591123
 20
6746.261926039486
 30
0.0
 10
9476.200592116862
 20
6748.521305502665
 30
0.0
 10
9474.911603091761
 20
6749.657202880776
 30
0.0
  0
SPLINE
  5
F2
330
1F
100
AcDbEntity
  8
0
  6
Continuous
 62
     7
370
    25
100
AcDbSpline
210
0.0
220
0.0
230
1.0
 70
     8
 71
     3
 72
    15
 73
    11
 74
     0
 42
0.00000001
 43
0.00000001
 40
0.0
 40
0.0
 40
0.0
 40
0.0
 40
0.0522126387663722
 40
0.2276403401238341
 40
0.3607065504312069
 40
0.3794860183662561
 40
0.5294866395842601
 40
0.5615296998323906
 40
0.7804170146586176
 40
1.0
 40
1.0
 40
1.0
 40
1.0
 10
9483.62130960229
 20
6756.8958675234
 30
0.0
 10
9483.35853098173
 20
6756.963097097499
 30
0.0
 10
9482.212850242837
 20
6757.256209330011
 30
0.0
 10
9480.291646091284
 20
6757.369942792488
 30
0.0
 10
9478.69146738636
 20
6756.753634679916
 30
0.0
 10
9477.447803863193
 20
6755.910874440305
 30
0.0
 10
9476.776025107521
 20
6755.167602531609
 30
0.0
 10
9475.77919838632
 20
6753.612555408467
 30
0.0
 10
9475.025627583851
 20
6751.648954623611
 30
0.0
 10
9474.94965143667
 20
6750.321821998074
 30
0.0
 10
9474.911603091761
 20
6749.657202880776
 30
0.0
  0
SPLINE
  5
F3
330
1F
100
AcDbEntity
  8
0
  6
Continuous
 62
     7
370
    25
100
AcDbSpline
210
0.0
220
0.0
230
1.0
 70
     8
 71
     3
 72
    12
 73
     8
 74
     0
 42
0.00000001
 43
0.00000001
 40
0.0
 40
0.0
 40
0.0
 40
0.0
 40
0.2485491050550031
 40
0.4987657561752878
 40
0.7484563825810844
 40
0.8744997800932464
 40
0.9999999999999999
 40
0.9999999999999999
 40
0.9999999999999999
 40
0.9999999999999999
 10
9483.62130960229
 20
6756.8958675234
 30
0.0
 10
9484.597587516657
 20
6755.416679974009
 30
0.0
 10
9486.556693312226
 20
6752.448380826708
 30
0.0
 10
9489.308099253953
 20
6747.766444661152
 30
0.0
 10
9491.596143288836
 20
6743.811512843956
 30
0.0
 10
9493.226861895077
 20
6740.526508988937
 30
0.0
 10
9494.254321017159
 20
6739.003867777393
 30
0.0
 10
9494.766941242191
 20
6738.244191150139
 30
0.0
  0
SPLINE
  5
F4
330
1F
100
AcDbEntity
  8
0
  6
Continuous
 62
     7
370
    25
100
AcDbSpline
210
0.0
220
0.0
230
1.0
 70
     8
 71
     3
 72
    10
 73
     6
 74
     0
 42
0.00000001
 43
0.00000001
 40
0.0
 40
0.0
 40
0.0
 40
0.0
 40
0.0148992016032059
 40
0.1293477307968971
 40
1.0
 40
1.0
 40
1.0
 40
1.0
 10
9495.66094284155
 20
6737.092581495012
 30
0.0
 10
9495.665346554257
 20
6737.098322613367
 30
0.0
 10
9495.703577478365
 20
6737.14816425261
 30
0.0
 10
9495.999351269666
 20
6737.533389671097
 30
0.0
 10
9496.294280205057
 20
6737.910708785763
 30
0.0
 10
9496.55494444091
 20
6738.244191150138
 30
0.0
  0
SPLINE
  5
F5
330
1F
100
AcDbEntity
  8
0
  6
Continuous
 62
     7
370
    25
100
AcDbSpline
210
0.0
220
0.0
230
1.0
 70
     8
 71
     3
 72
    10
 73
     6
 74
     0
 42
0.00000001
 43
0.00000001
 40
0.0
 40
0.0
 40
0.0
 40
0.0
 40
0.8706522692032191
 40
0.9851007983968151
 40
1.0
 40
1.0
 40
1.0
 40
1.0
 10
9494.766941242191
 20
6738.244191150139
 30
0.0
 10
9495.027605478048
 20
6737.910708785767
 30
0.0
 10
9495.322534413446
 20
6737.533389671107
 30
0.0
 10
9495.618308204732
 20
6737.148164252607
 30
0.0
 10
9495.656539128842
 20
6737.098322613366
 30
0.0
 10
9495.66094284155
 20
6737.092581495012
 30
0.0
  0
LINE
  5
F6
330
1F
100
AcDbEntity
  8
0
  6
Continuous
 62
     7
370
    25
100
AcDbLine
 10
9507.7005760808
 20
6756.8958675234
 30
0.0
 11
9483.6213096023
 21
6756.8958675234
 31
0.0
  0
SPLINE
  5
F7
330
1F
100
AcDbEntity
  8
0
  6
Continuous
 62
     7
370
    25
100
AcDbSpline
210
0.0
220
0.0
230
1.0
 70
     8
 71
     3
 72
    10
 73
     6
 74
     0
 42
0.00000001
 43
0.00000001
 40
0.0
 40
0.0
 40
0.0
 40
0.0
 40
0.0148992016052734
 40
0.1293477307898564
 40
0.9999999999999999
 40
0.9999999999999999
 40
0.9999999999999999
 40
0.9999999999999999
 10
9495.66094284155
 20
6661.349726197294
 30
0.0
 10
9495.656539128917
 20
6661.343985078883
 30
0.0
 10
9495.618308205458
 20
6661.294143439151
 30
0.0
 10
9495.32253441106
 20
6660.908918023019
 30
0.0
 10
9495.027605476935
 20
6660.531598907396
 30
0.0
 10
9494.766941242196
 20
6660.198116542172
 30
0.0
  0
SPLINE
  5
F8
330
1F
100
AcDbEntity
  8
0
  6
Continuous
 62
     7
370
    25
100
AcDbSpline
210
0.0
220
0.0
230
1.0
 70
     8
 71
     3
 72
    10
 73
     6
 74
     0
 42
0.00000001
 43
0.00000001
 40
0.0
 40
0.0
 40
0.0
 40
0.0
 40
0.8706522692101435
 40
0.9851007983947265
 40
0.9999999999999999
 40
0.9999999999999999
 40
0.9999999999999999
 40
0.9999999999999999
 10
9496.5549444409
 20
6660.198116542172
 30
0.0
 10
9496.294280206164
 20
6660.531598907396
 30
0.0
 10
9495.999351272038
 20
6660.908918023019
 30
0.0
 10
9495.703577477641
 20
6661.294143439152
 30
0.0
 10
9495.665346554184
 20
6661.343985078883
 30
0.0
 10
9495.66094284155
 20
6661.349726197294
 30
0.0
  0
LINE
  5
F9
330
1F
100
AcDbEntity
  8
0
  6
Continuous
 62
     7
370
    25
100
AcDbLine
 10
9483.6213096023
 20
6641.5464401689
 30
0.0
 11
9507.7005760808
 21
6641.5464401689
 31
0.0
  0
LINE
  5
FA
330
1F
100
AcDbEntity
  8
0
  6
Continuous
 62
     7
370
    25
100
AcDbLine
 10
9493.5694973874
 20
6737.092581495
 30
0.0
 11
9495.6609428416
 21
6737.092581495
 31
0.0
  0
LINE
  5
FB
330
1F
100
AcDbEntity
  8
0
  6
Continuous
 62
     7
370
    25
100
AcDbLine
 10
9495.6609428416
 20
6737.092581495
 30
0.0
 11
9497.7523882957
 21
6737.092581495
 31
0.0
  0
LINE
  5
FC
330
1F
100
AcDbEntity
  8
0
  6
Continuous
 62
     7
370
    25
100
AcDbLine
 10
9495.6609428416
 20
6661.3497261973
 30
0.0
 11
9493.5694973874
 21
6661.3497261973
 31
0.0
  0
LINE
  5
FD
330
1F
100
AcDbEntity
  8
0
  6
Continuous
 62
     7
370
    25
100
AcDbLine
 10
9497.7523882957
 20
6661.3497261973
 30
0.0
 11
9495.6609428416
 21
6661.3497261973
 31
0.0
  0
LINE
  5
FE
330
1F
100
AcDbEntity
  8
0
  6
Continuous
 62
     7
370
    25
100
AcDbLine
 10
9495.6609428416
 20
6736.3461538462
 30
0.0
 11
9479.1609428415
 21
6736.3461538462
 31
0.0
  0
LINE
  5
FF
330
1F
100
AcDbEntity
  8
0
  6
Continuous
 62
     7
370
    25
100
AcDbLine
 10
9512.1609428416
 20
6736.3461538462
 30
0.0
 11
9495.6609428416
 21
6736.3461538462
 31
0.0
  0
LINE
  5
100
330
1F
100
AcDbEntity
  8
0
  6
Continuous
 62
     7
370
    25
100
AcDbLine
 10
9479.1609428415
 20
6662.0961538462
 30
0.0
 11
9512.1609428416
 21
6662.0961538462
 31
0.0
  0
SPLINE
  5
101
330
1F
100
AcDbEntity
  8
0
  6
Continuous
 62
     7
370
    25
100
AcDbSpline
210
0.0
220
0.0
230
1.0
 70
     8
 71
     3
 72
    15
 73
    11
 74
     0
 42
0.00000001
 43
0.00000001
 40
0.0
 40
0.0
 40
0.0
 40
0.0
 40
0.1986042262223968
 40
0.3836345912928864
 40
0.4773163326515082
 40
0.573154590496374
 40
0.7422142532513074
 40
0.8921389665444418
 40
0.9263221218439578
 40
1.0
 40
1.0
 40
1.0
 40
1.0
 10
9507.700576080808
 20
6762.662986544899
 30
0.0
 10
9509.230914653492
 20
6762.588716717412
 30
0.0
 10
9512.186998841822
 20
6762.445253129275
 30
0.0
 10
9515.702357814773
 20
6761.275137271228
 30
0.0
 10
9518.182609313259
 20
6759.940197816843
 30
0.0
 10
9520.326498024639
 20
6758.422358870847
 30
0.0
 10
9522.361272869382
 20
6756.401207382163
 30
0.0
 10
9523.454127391153
 20
6754.725937187667
 30
0.0
 10
9523.930311192957
 20
6753.652071069036
 30
0.0
 10
9524.015383852082
 20
6753.264169211808
 30
0.0
 10
9524.073495412973
 20
6752.999200623452
 30
0.0
  0
LINE
  5
102
330
1F
100
AcDbEntity
  8
0
  6
Continuous
 62
     7
370
    25
100
AcDbLine
 10
9483.6213096023
 20
6762.6629865449
 30
0.0
 11
9507.7005760808
 21
6762.6629865449
 31
0.0
  0
SPLINE
  5
103
330
1F
100
AcDbEntity
  8
0
  6
Continuous
 62
     7
370
    25
100
AcDbSpline
210
0.0
220
0.0
230
1.0
 70
     8
 71
     3
 72
    17
 73
    13
 74
     0
 42
0.00000001
 43
0.00000001
 40
0.0
 40
0.0
 40
0.0
 40
0.0
 40
0.0832315564386126
 40
0.1698968153163007
 40
0.1847560112600738
 40
0.2832894278105644
 40
0.3858160515440295
 40
0.4811414527100949
 40
0.5789842638002418
 40
0.7544888536334895
 40
0.9469611077883947
 40
1.0
 40
1.0
 40
1.0
 40
1.0
 10
9467.248390270128
 20
6752.999200623454
 30
0.0
 10
9467.318645582853
 20
6753.301569604078
 30
0.0
 10
9467.462054578216
 20
6753.918781741598
 30
0.0
 10
9467.909606883077
 20
6754.744295230412
 30
0.0
 10
9468.50420273145
 20
6755.664918489708
 30
0.0
 10
9469.30274600641
 20
6756.705016604657
 30
0.0
 10
9470.71556531753
 20
6758.127827669521
 30
0.0
 10
9472.388590330507
 20
6759.447130668564
 30
0.0
 10
9474.73960470911
 20
6760.878523977645
 30
0.0
 10
9478.09187292911
 20
6762.166423392745
 30
0.0
 10
9481.325438927559
 20
6762.630561677608
 30
0.0
 10
9483.213436812091
 20
6762.657226106719
 30
0.0
 10
9483.62130960229
 20
6762.662986544899
 30
0.0
  0
SPLINE
  5
104
330
1F
100
AcDbEntity
  8
0
  6
Continuous
 62
     7
370
    25
100
AcDbSpline
210
0.0
220
0.0
230
1.0
 70
     8
 71
     3
 72
    15
 73
    11
 74
     0
 42
0.00000001
 43
0.00000001
 40
0.0
 40
0.0
 40
0.0
 40
0.0
 40
0.1986042262223758
 40
0.3836345912928613
 40
0.4773163326514808
 40
0.5731545904963419
 40
0.7422142532512753
 40
0.8921389665444103
 40
0.9263221218439237
 40
1.0
 40
1.0
 40
1.0
 40
1.0
 10
9483.62130960229
 20
6635.779321147406
 30
0.0
 10
9482.090971029607
 20
6635.853590974894
 30
0.0
 10
9479.134886841279
 20
6635.997054563032
 30
0.0
 10
9475.619527868324
 20
6637.167170421078
 30
0.0
 10
9473.139276369839
 20
6638.502109875463
 30
0.0
 10
9470.995387658459
 20
6640.019948821459
 30
0.0
 10
9468.960612813715
 20
6642.041100310144
 30
0.0
 10
9467.867758291946
 20
6643.716370504639
 30
0.0
 10
9467.391574490142
 20
6644.790236623271
 30
0.0
 10
9467.306501831019
 20
6645.178138480499
 30
0.0
 10
9467.248390270128
 20
6645.443107068855
 30
0.0
  0
LINE
  5
105
330
1F
100
AcDbEntity
  8
0
  6
Continuous
 62
     7
370
    25
100
AcDbLine
 10
9507.7005760808
 20
6635.7793211474
 30
0.0
 11
9483.6213096023
 21
6635.7793211474
 31
0.0
  0
SPLINE
  5
106
330
1F
100
AcDbEntity
  8
0
  6
Continuous
 62
     7
370
    25
100
AcDbSpline
210
0.0
220
0.0
230
1.0
 70
     8
 71
     3
 72
    17
 73
    13
 74
     0
 42
0.00000001
 43
0.00000001
 40
0.0
 40
0.0
 40
0.0
 40
0.0
 40
0.0832315564386099
 40
0.169896815316299
 40
0.1847560112600706
 40
0.283289427810556
 40
0.3858160515440205
 40
0.4811414527100833
 40
0.5789842638002337
 40
0.7544888536334647
 40
0.9469611077883576
 40
1.0
 40
1.0
 40
1.0
 40
1.0
 10
9524.073495412971
 20
6645.443107068852
 30
0.0
 10
9524.003240100246
 20
6645.140738088228
 30
0.0
 10
9523.859831104883
 20
6644.523525950709
 30
0.0
 10
9523.412278800024
 20
6643.698012461894
 30
0.0
 10
9522.817682951649
 20
6642.777389202599
 30
0.0
 10
9522.01913967669
 20
6641.737291087649
 30
0.0
 10
9520.60632036557
 20
6640.314480022786
 30
0.0
 10
9518.933295352592
 20
6638.995177023743
 30
0.0
 10
9516.582280973991
 20
6637.563783714661
 30
0.0
 10
9513.23001275399
 20
6636.275884299562
 30
0.0
 10
9509.99644675554
 20
6635.811746014699
 30
0.0
 10
9508.108448871008
 20
6635.785081585588
 30
0.0
 10
9507.700576080808
 20
6635.779321147406
 30
0.0
  0
SPLINE
  5
107
330
1F
100
AcDbEntity
  8
0
  6
Continuous
 62
     7
370
    25
100
AcDbSpline
210
0.0
220
0.0
230
1.0
 70
     8
 71
     3
 72
    11
 73
     7
 74
     0
 42
0.00000001
 43
0.00000001
 40
0.0
 40
0.0
 40
0.0
 40
0.0
 40
0.2477105748728661
 40
0.4946393628833732
 40
0.7615262587517134
 40
0.9999999999999999
 40
0.9999999999999999
 40
0.9999999999999999
 40
0.9999999999999999
 10
9485.66094284155
 20
6615.096153846153
 30
0.0
 10
9485.752163799427
 20
6615.154631606319
 30
0.0
 10
9485.934317817317
 20
6615.271402567938
 30
0.0
 10
9487.342714264953
 20
6616.104279488759
 30
0.0
 10
9489.317101837067
 20
6617.16621342504
 30
0.0
 10
9491.095131562524
 20
6617.774817529526
 30
0.0
 10
9491.93416287905
 20
6618.062010648809
 30
0.0
  0
SPLINE
  5
108
330
1F
100
AcDbEntity
  8
0
  6
Continuous
 62
     7
370
    25
100
AcDbSpline
210
0.0
220
0.0
230
1.0
 70
     8
 71
     3
 72
    14
 73
    10
 74
     0
 42
0.00000001
 43
0.00000001
 40
0.0
 40
0.0
 40
0.0
 40
0.0
 40
0.1045512014369122
 40
0.3648007843297478
 40
0.51444416425295
 40
0.6688749595430925
 40
0.8097538758357242
 40
0.9562432827192601
 40
1.0
 40
1.0
 40
1.0
 40
1.0
 10
9499.387722804076
 20
6618.062010648801
 30
0.0
 10
9499.764202351564
 20
6617.944791906382
 30
0.0
 10
9501.077817425517
 20
6617.535791449335
 30
0.0
 10
9502.662241886868
 20
6616.79756658133
 30
0.0
 10
9504.037157768404
 20
6616.065715936416
 30
0.0
 10
9504.889515557881
 20
6615.569517203327
 30
0.0
 10
9505.418202538154
 20
6615.247879339595
 30
0.0
 10
9505.71178153566
 20
6615.064685502326
 30
0.0
 10
9505.61676836152
 20
6615.123561239828
 30
0.0
 10
9505.59491527717
 20
6615.137102693099
 30
0.0
  0
SPLINE
  5
109
330
1F
100
AcDbEntity
  8
0
  6
Continuous
 62
     7
370
    25
100
AcDbSpline
210
0.0
220
0.0
230
1.0
 70
     8
 71
     3
 72
    11
 73
     7
 74
     0
 42
0.00000001
 43
0.00000001
 40
0.0
 40
0.0
 40
0.0
 40
0.0
 40
0.1033543362529712
 40
0.4595195061846534
 40
0.8164260154744585
 40
0.9999999999999999
 40
0.9999999999999999
 40
0.9999999999999999
 40
0.9999999999999999
 10
9491.93416287905
 20
6618.062010648809
 30
0.0
 10
9492.17530108834
 20
6618.127313678911
 30
0.0
 10
9493.247415862355
 20
6618.417654822139
 30
0.0
 10
9495.341932884325
 20
6618.704405301688
 30
0.0
 10
9497.68209970447
 20
6618.50568782772
 30
0.0
 10
9498.955285690765
 20
6618.174498852401
 30
0.0
 10
9499.387722804076
 20
6618.062010648801
 30
0.0
  0
LINE
  5
10A
330
1F
100
AcDbEntity
  8
0
  6
Continuous
 62
     7
370
    25
100
AcDbLine
 10
9483.6213096023
 20
6762.6629865449
 30
0.0
 11
9483.6213096023
 21
6756.8958675234
 31
0.0
  0
ARC
  5
10B
330
1F
100
AcDbEntity
  8
0
  6
Continuous
 62
     7
370
    25
100
AcDbCircle
 10
9467.1594577211
 20
6742.3383918425
 30
0.0
 40
10.66117971251444
100
AcDbArc
 50
43.3530315536
 51
89.522049252
  0
ARC
  5
10C
330
1F
100
AcDbEntity
  8
0
  6
Continuous
 62
     7
370
    25
100
AcDbCircle
 10
9524.162427962
 20
6656.1039158497
 30
0.0
 40
10.66117971237779
100
AcDbArc
 50
223.3530315533
 51
269.5220492523
  0
LINE
  5
10D
330
1F
100
AcDbEntity
  8
0
  6
Continuous
 62
     7
370
    25
100
AcDbLine
 10
9507.7005760808
 20
6641.5464401689
 30
0.0
 11
9507.7005760808
 21
6635.7793211474
 31
0.0
  0
ARC
  5
10E
330
1F
100
AcDbEntity
  8
0
  6
Continuous
 62
     7
370
    25
100
AcDbCircle
 10
9524.162427962
 20
6742.3383918426
 30
0.0
 40
10.66117971244733
100
AcDbArc
 50
90.4779507479
 51
136.6469684465
  0
LINE
  5
10F
330
1F
100
AcDbEntity
  8
0
  6
Continuous
 62
     7
370
    25
100
AcDbLine
 10
9507.7005760808
 20
6762.6629865449
 30
0.0
 11
9507.7005760808
 21
6756.8958675234
 31
0.0
  0
ARC
  5
110
330
1F
100
AcDbEntity
  8
0
  6
Continuous
 62
     7
370
    25
100
AcDbCircle
 10
9467.1594577211
 20
6656.1039158498
 30
0.0
 40
10.66117971244804
100
AcDbArc
 50
270.4779507479
 51
316.6469684465
  0
LINE
  5
111
330
1F
100
AcDbEntity
  8
0
  6
Continuous
 62
     7
370
    25
100
AcDbLine
 10
9483.6213096023
 20
6641.5464401689
 30
0.0
 11
9483.6213096023
 21
6635.7793211474
 31
0.0
  0
ARC
  5
112
330
1F
100
AcDbEntity
  8
0
  6
Continuous
 62
     7
370
    25
100
AcDbCircle
 10
9495.6878311732
 20
6618.6431293539
 30
0.0
 40
3.798384473948224
100
AcDbArc
 50
188.8003003922
 51
217.6273932697
  0
SPLINE
  5
113
330
1F
100
AcDbEntity
  8
0
  6
Continuous
 62
     7
370
    25
100
AcDbSpline
210
0.0
220
0.0
230
1.0
 70
     8
 71
     3
 72
    11
 73
     7
 74
     0
 42
0.00000001
 43
0.00000001
 40
0.0
 40
0.0
 40
0.0
 40
0.0
 40
0.320041495202771
 40
0.7005569397998339
 40
0.7391746959945767
 40
1.0
 40
1.0
 40
1.0
 40
1.0
 10
9498.642366811571
 20
6616.324124889157
 30
0.0
 10
9498.03112624328
 20
6616.458039809758
 30
0.0
 10
9496.693147173622
 20
6616.751173757623
 30
0.0
 10
9495.106654520847
 20
6616.730159968551
 30
0.0
 10
9493.738797326725
 20
6616.566443723862
 30
0.0
 10
9493.172651525021
 20
6616.436933121368
 30
0.0
 10
9492.67951887155
 20
6616.324124889163
 30
0.0
  0
SPLINE
  5
114
330
1F
100
AcDbEntity
  8
0
  6
Continuous
 62
     7
370
    25
100
AcDbSpline
210
0.0
220
0.0
230
1.0
 70
     8
 71
     3
 72
    10
 73
     6
 74
     0
 42
0.00000001
 43
0.00000001
 40
0.0
 40
0.0
 40
0.0
 40
0.0
 40
0.2587151728003666
 40
0.6816723990930569
 40
1.0
 40
1.0
 40
1.0
 40
1.0
 10
9491.93416287905
 20
6618.062010648809
 30
0.0
 10
9492.553852799483
 20
6618.160015096357
 30
0.0
 10
9494.186634944354
 20
6618.418240874762
 30
0.0
 10
9496.831858827974
 20
6618.452439068089
 30
0.0
 10
9498.619892957826
 20
6618.179302725357
 30
0.0
 10
9499.387722804076
 20
6618.062010648801
 30
0.0
  0
ARC
  5
115
330
1F
100
AcDbEntity
  8
0
  6
Continuous
 62
     7
370
    25
100
AcDbCircle
 10
9495.6340545099
 20
6618.643129354
 30
0.0
 40
3.798384473940497
100
AcDbArc
 50
322.3726067301
 51
351.1996996076
  0
LINE
  5
116
330
1F
100
AcDbEntity
  8
0
  6
Continuous
 62
     7
370
    25
100
AcDbLine
 10
9181.9109428415
 20
6831.8461538462
 30
0.0
 11
9195.4109428416
 21
6831.8461538462
 31
0.0
  0
LINE
  5
117
330
1F
100
AcDbEntity
  8
0
  6
Continuous
 62
     7
370
    25
100
AcDbLine
 10
9195.4109428416
 20
6831.8461538462
 30
0.0
 11
9195.4109428416
 21
6820.8461538462
 31
0.0
  0
LINE
  5
118
330
1F
100
AcDbEntity
  8
0
  6
Continuous
 62
     7
370
    25
100
AcDbLine
 10
9195.4109428416
 20
6820.8461538462
 30
0.0
 11
9181.9109428415
 21
6820.8461538462
 31
0.0
  0
LINE
  5
119
330
1F
100
AcDbEntity
  8
0
  6
Continuous
 62
     7
370
    25
100
AcDbLine
 10
9181.9109428415
 20
6820.8461538462
 30
0.0
 11
9181.9109428415
 21
6831.8461538462
 31
0.0
  0
LINE
  5
11A
330
1F
100
AcDbEntity
  8
0
  6
Continuous
 62
     7
370
    25
100
AcDbLine
 10
9199.9109428416
 20
6820.8461538462
 30
0.0
 11
9199.9109428416
 21
6827.3461538462
 31
0.0
  0
LINE
  5
11B
330
1F
100
AcDbEntity
  8
0
  6
Continuous
 62
     7
370
    25
100
AcDbLine
 10
9199.9109428416
 20
6820.8461538462
 30
0.0
 11
9195.4109428416
 21
6820.8461538462
 31
0.0
  0
ARC
  5
11C
330
1F
100
AcDbEntity
  8
0
  6
Continuous
 62
     7
370
    25
100
AcDbCircle
 10
9195.4109428416
 20
6827.3461538462
 30
0.0
 40
4.5
100
AcDbArc
 50
0.0
 51
90.0
  0
LINE
  5
11D
330
1F
100
AcDbEntity
  8
0
  6
Continuous
 62
     7
370
    25
100
AcDbLine
 10
9195.4109428416
 20
6611.8461538462
 30
0.0
 11
9195.4109428416
 21
6820.8461538462
 31
0.0
  0
LINE
  5
11E
330
1F
100
AcDbEntity
  8
0
  6
Continuous
 62
     7
370
    25
100
AcDbLine
 10
9181.9109428415
 20
6611.8461538462
 30
0.0
 11
9195.4109428416
 21
6611.8461538462
 31
0.0
  0
LINE
  5
11F
330
1F
100
AcDbEntity
  8
0
  6
Continuous
 62
     7
370
    25
100
AcDbLine
 10
9181.9109428415
 20
6820.8461538462
 30
0.0
 11
9181.9109428415
 21
6611.8461538462
 31
0.0
  0
LINE
  5
120
330
1F
100
AcDbEntity
  8
0
  6
Continuous
 62
     7
370
    25
100
AcDbLine
 10
9199.9109428416
 20
6820.8461538462
 30
0.0
 11
9199.9109428416
 21
6611.8461538462
 31
0.0
  0
LINE
  5
121
330
1F
100
AcDbEntity
  8
0
  6
Continuous
 62
     7
370
    25
100
AcDbLine
 10
9195.4109428416
 20
6611.8461538462
 30
0.0
 11
9199.9109428416
 21
6611.8461538462
 31
0.0
  0
LINE
  5
122
330
1F
100
AcDbEntity
  8
0
  6
Continuous
 62
     7
370
    25
100
AcDbLine
 10
9195.4109428416
 20
6611.8461538462
 30
0.0
 11
9195.4109428416
 21
6600.8461538462
 31
0.0
  0
LINE
  5
123
330
1F
100
AcDbEntity
  8
0
  6
Continuous
 62
     7
370
    25
100
AcDbLine
 10
9195.4109428416
 20
6600.8461538462
 30
0.0
 11
9181.9109428415
 21
6600.8461538462
 31
0.0
  0
LINE
  5
124
330
1F
100
AcDbEntity
  8
0
  6
Continuous
 62
     7
370
    25
100
AcDbLine
 10
9181.9109428415
 20
6600.8461538462
 30
0.0
 11
9181.9109428415
 21
6611.8461538462
 31
0.0
  0
LINE
  5
125
330
1F
100
AcDbEntity
  8
0
  6
Continuous
 62
     7
370
    25
100
AcDbLine
 10
9199.9109428416
 20
6605.3461538462
 30
0.0
 11
9199.9109428416
 21
6611.8461538462
 31
0.0
  0
ARC
  5
126
330
1F
100
AcDbEntity
  8
0
  6
Continuous
 62
     7
370
    25
100
AcDbCircle
 10
9195.4109428416
 20
6605.3461538462
 30
0.0
 40
4.5
100
AcDbArc
 50
270.0
 51
0.0
  0
LINE
  5
127
330
1F
100
AcDbEntity
  8
0
  6
Continuous
 62
     8
370
    25
100
AcDbLine
 10
9497.7523882957
 20
6737.092581495
 30
0.0
 11
9512.7990047486
 21
6737.092581495
 31
0.0
  0
SPLINE
  5
128
330
1F
100
AcDbEntity
  8
0
  6
Continuous
 62
     8
370
    25
100
AcDbSpline
210
0.0
220
0.0
230
1.0
 70
     8
 71
     3
 72
    10
 73
     6
 74
     0
 42
0.00000001
 43
0.00000001
 40
0.0
 40
0.0
 40
0.0
 40
0.0
 40
0.2435909521646163
 40
0.6125599662233917
 40
1.0
 40
1.0
 40
1.0
 40
1.0
 10
9515.811228237473
 20
6745.923315559798
 30
0.0
 10
9515.813628372121
 20
6745.956420017802
 30
0.0
 10
9515.819664008446
 20
6746.03966804281
 30
0.0
 10
9515.925487811928
 20
6747.449795560933
 30
0.0
 10
9516.246074822393
 20
6748.909518609921
 30
0.0
 10
9516.410282591347
 20
6749.657202880783
 30
0.0
  0
LINE
  5
129
330
1F
100
AcDbEntity
  8
0
  6
Continuous
 62
     8
370
    25
100
AcDbLine
 10
9493.5694973874
 20
6661.3497261973
 30
0.0
 11
9478.5228809345
 21
6661.3497261973
 31
0.0
  0
SPLINE
  5
12A
330
1F
100
AcDbEntity
  8
0
  6
Continuous
 62
     8
370
    25
100
AcDbSpline
210
0.0
220
0.0
230
1.0
 70
     8
 71
     3
 72
    10
 73
     6
 74
     0
 42
0.00000001
 43
0.00000001
 40
0.0
 40
0.0
 40
0.0
 40
0.0
 40
0.2435909521646054
 40
0.6125599662233435
 40
1.0
 40
1.0
 40
1.0
 40
1.0
 10
9475.510657445626
 20
6652.518992132509
 30
0.0
 10
9475.508257310978
 20
6652.485887674504
 30
0.0
 10
9475.502221674651
 20
6652.402639649496
 30
0.0
 10
9475.396397871169
 20
6650.992512131374
 30
0.0
 10
9475.075810860706
 20
6649.532789082386
 30
0.0
 10
9474.911603091754
 20
6648.785104811524
 30
0.0
  0
LINE
  5
12B
330
1F
100
AcDbEntity
  8
0
  6
Continuous
 62
     8
370
    25
100
AcDbLine
 10
9512.7990047486
 20
6661.3497261973
 30
0.0
 11
9497.7523882957
 21
6661.3497261973
 31
0.0
  0
SPLINE
  5
12C
330
1F
100
AcDbEntity
  8
0
  6
Continuous
 62
     8
370
    25
100
AcDbSpline
210
0.0
220
0.0
230
1.0
 70
     8
 71
     3
 72
    11
 73
     7
 74
     0
 42
0.00000001
 43
0.00000001
 40
0.0
 40
0.0
 40
0.0
 40
0.0
 40
0.2936115441221293
 40
0.5946812525332076
 40
0.9411987738079497
 40
1.0
 40
1.0
 40
1.0
 40
1.0
 10
9516.410282591347
 20
6648.785104811524
 30
0.0
 10
9516.278064184247
 20
6649.365225097411
 30
0.0
 10
9516.01026882839
 20
6650.540201576157
 30
0.0
 10
9515.851575728813
 20
6651.929043704024
 30
0.0
 10
9515.798408527367
 20
6652.693647109514
 30
0.0
 10
9515.809575868647
 20
6652.541500477963
 30
0.0
 10
9515.811195959906
 20
6652.5194279522
 30
0.0
  0
LINE
  5
12D
330
1F
100
AcDbEntity
  8
0
  6
Continuous
 62
     8
370
    25
100
AcDbLine
 10
9478.5228809345
 20
6737.092581495
 30
0.0
 11
9493.5694973874
 21
6737.092581495
 31
0.0
  0
SPLINE
  5
12E
330
1F
100
AcDbEntity
  8
0
  6
Continuous
 62
     8
370
    25
100
AcDbSpline
210
0.0
220
0.0
230
1.0
 70
     8
 71
     3
 72
    11
 73
     7
 74
     0
 42
0.00000001
 43
0.00000001
 40
0.0
 40
0.0
 40
0.0
 40
0.0
 40
0.2936115441221025
 40
0.5946812525331717
 40
0.9411987738079032
 40
1.0
 40
1.0
 40
1.0
 40
1.0
 10
9474.911603091761
 20
6749.657202880776
 30
0.0
 10
9475.043821498857
 20
6749.077082594891
 30
0.0
 10
9475.311616854708
 20
6747.902106116153
 30
0.0
 10
9475.470309954288
 20
6746.513263988283
 30
0.0
 10
9475.523477155733
 20
6745.748660582793
 30
0.0
 10
9475.512309814454
 20
6745.900807214343
 30
0.0
 10
9475.510689723193
 20
6745.922879740107
 30
0.0
  0
LINE
  5
12F
330
1F
100
AcDbEntity
  8
0
  6
Continuous
 62
     8
370
    25
100
AcDbLine
 10
9897.7859428416
 20
6783.3461538462
 30
0.0
 11
9897.7859428416
 21
6751.3461538462
 31
0.0
  0
SPLINE
  5
130
330
1F
100
AcDbEntity
  8
0
  6
Continuous
 62
     8
370
    25
100
AcDbSpline
210
0.0
220
0.0
230
1.0
 70
     8
 71
     3
 72
    11
 73
     7
 74
     0
 42
0.00000001
 43
0.00000001
 40
0.0
 40
0.0
 40
0.0
 40
0.0
 40
0.0804500501064983
 40
0.4494542727367641
 40
0.7225715140149478
 40
1.0
 40
1.0
 40
1.0
 40
1.0
 10
9466.611464974
 20
6751.383643613851
 30
0.0
 10
9466.604391281788
 20
6751.372155892988
 30
0.0
 10
9466.56487233575
 20
6751.307976874843
 30
0.0
 10
9466.748299192393
 20
6751.605008795197
 30
0.0
 10
9467.051583622702
 20
6752.166245887342
 30
0.0
 10
9467.18244646493
 20
6752.720103318688
 30
0.0
 10
9467.248390270128
 20
6752.999200623454
 30
0.0
  0
SPLINE
  5
131
330
1F
100
AcDbEntity
  8
0
  6
Continuous
 62
     8
370
    25
100
AcDbSpline
210
0.0
220
0.0
230
1.0
 70
     8
 71
     3
 72
    10
 73
     6
 74
     0
 42
0.00000001
 43
0.00000001
 40
0.0
 40
0.0
 40
0.0
 40
0.0
 40
0.3575327030834761
 40
0.7250340151420495
 40
0.9999999999999999
 40
0.9999999999999999
 40
0.9999999999999999
 40
0.9999999999999999
 10
9524.073495412973
 20
6752.999200623452
 30
0.0
 10
9524.163472861195
 20
6752.652446970812
 30
0.0
 10
9524.34593647919
 20
6751.949271594488
 30
0.0
 10
9524.69081905222
 20
6751.420303673569
 30
0.0
 10
9524.704545852588
 20
6751.394631082504
 30
0.0
 10
9524.710420709098
 20
6751.383643613851
 30
0.0
  0
LINE
  5
132
330
1F
100
AcDbEntity
  8
0
  6
Continuous
 62
     8
370
    25
100
AcDbLine
 10
9897.7859428416
 20
6615.0961538462
 30
0.0
 11
9897.7859428416
 21
6647.0961538462
 31
0.0
  0
SPLINE
  5
133
330
1F
100
AcDbEntity
  8
0
  6
Continuous
 62
     8
370
    25
100
AcDbSpline
210
0.0
220
0.0
230
1.0
 70
     8
 71
     3
 72
    10
 73
     6
 74
     0
 42
0.00000001
 43
0.00000001
 40
0.0
 40
0.0
 40
0.0
 40
0.0
 40
0.3575327030834661
 40
0.7250340151420198
 40
1.0
 40
1.0
 40
1.0
 40
1.0
 10
9467.248390270128
 20
6645.443107068855
 30
0.0
 10
9467.158412821904
 20
6645.789860721496
 30
0.0
 10
9466.975949203907
 20
6646.49303609782
 30
0.0
 10
9466.631066630878
 20
6647.022004018739
 30
0.0
 10
9466.617339830509
 20
6647.047676609803
 30
0.0
 10
9466.611464974
 20
6647.058664078457
 30
0.0
  0
SPLINE
  5
134
330
1F
100
AcDbEntity
  8
0
  6
Continuous
 62
     8
370
    25
100
AcDbSpline
210
0.0
220
0.0
230
1.0
 70
     8
 71
     3
 72
    11
 73
     7
 74
     0
 42
0.00000001
 43
0.00000001
 40
0.0
 40
0.0
 40
0.0
 40
0.0
 40
0.0804500501065249
 40
0.4494542727367706
 40
0.7225715140149493
 40
0.9999999999999999
 40
0.9999999999999999
 40
0.9999999999999999
 40
0.9999999999999999
 10
9524.710420709098
 20
6647.058664078457
 30
0.0
 10
9524.717494401311
 20
6647.070151799318
 30
0.0
 10
9524.75701334735
 20
6647.134330817464
 30
0.0
 10
9524.573586490704
 20
6646.83729889711
 30
0.0
 10
9524.270302060397
 20
6646.276061804965
 30
0.0
 10
9524.13943921817
 20
6645.722204373619
 30
0.0
 10
9524.073495412971
 20
6645.443107068852
 30
0.0
  0
SPLINE
  5
135
330
1F
100
AcDbEntity
  8
0
  6
Continuous
 62
     8
370
    25
100
AcDbSpline
210
0.0
220
0.0
230
1.0
 70
     8
 71
     3
 72
    11
 73
     7
 74
     0
 42
0.00000001
 43
0.00000001
 40
0.0
 40
0.0
 40
0.0
 40
0.0
 40
0.2897879106098949
 40
0.5904869159359996
 40
0.8424346047675647
 40
0.9999999999999999
 40
0.9999999999999999
 40
0.9999999999999999
 40
0.9999999999999999
 10
9492.67951887155
 20
6616.324124889163
 30
0.0
 10
9491.813398900347
 20
6616.044164510525
 30
0.0
 10
9490.048547807874
 20
6615.473702684776
 30
0.0
 10
9488.381905644657
 20
6614.618405628065
 30
0.0
 10
9487.459764265905
 20
6614.133578392311
 30
0.0
 10
9487.482057656676
 20
6614.144603840412
 30
0.0
 10
9487.490635323824
 20
6614.148846022543
 30
0.0
  0
SPLINE
  5
136
330
1F
100
AcDbEntity
  8
0
  6
Continuous
 62
     8
370
    25
100
AcDbSpline
210
0.0
220
0.0
230
1.0
 70
     8
 71
     3
 72
    12
 73
     8
 74
     0
 42
0.00000001
 43
0.00000001
 40
0.0
 40
0.0
 40
0.0
 40
0.0
 40
0.0990194207588124
 40
0.3290494501145297
 40
0.5692978612946297
 40
0.8464451080966102
 40
1.0
 40
1.0
 40
1.0
 40
1.0
 10
9503.83125039567
 20
6614.148846002955
 30
0.0
 10
9503.856323345324
 20
6614.135302582192
 30
0.0
 10
9503.939642761183
 20
6614.090296712428
 30
0.0
 10
9503.322481028934
 20
6614.424989491446
 30
0.0
 10
9502.072393575556
 20
6615.053854589081
 30
0.0
 10
9500.429013919284
 20
6615.798894391101
 30
0.0
 10
9499.111934808398
 20
6616.186083396923
 30
0.0
 10
9498.642366811571
 20
6616.324124889157
 30
0.0
  0
LINE
  5
137
330
1F
100
AcDbEntity
  8
0
  6
Continuous
 62
     7
370
    25
100
AcDbLine
 10
8918.8739852703
 20
6390.513178902
 30
0.0
 11
8918.8739852703
 21
5692.638178902
 31
0.0
  0
LINE
  5
138
330
1F
100
AcDbEntity
  8
0
  6
Continuous
 62
     7
370
    25
100
AcDbLine
 10
8950.8739852703
 20
5692.638178902
 30
0.0
 11
8950.8739852703
 21
6390.513178902
 31
0.0
  0
ARC
  5
139
330
1F
100
AcDbEntity
  8
0
  6
Continuous
 62
     7
370
    25
100
AcDbCircle
 10
8934.8739852703
 20
5624.513178902
 30
0.0
 40
16.0
100
AcDbArc
 50
180.0
 51
0.0
  0
LINE
  5
13A
330
1F
100
AcDbEntity
  8
0
  6
Continuous
 62
     7
370
    25
100
AcDbLine
 10
8950.8739852703
 20
5624.513178902
 30
0.0
 11
8950.8739852703
 21
5692.638178902
 31
0.0
  0
LINE
  5
13B
330
1F
100
AcDbEntity
  8
0
  6
Continuous
 62
     7
370
    25
100
AcDbLine
 10
8918.8739852703
 20
5692.638178902
 30
0.0
 11
8918.8739852703
 21
5624.513178902
 31
0.0
  0
SPLINE
  5
13C
330
1F
100
AcDbEntity
  8
0
  6
Continuous
 62
     7
370
    25
100
AcDbSpline
210
0.0
220
0.0
230
1.0
 70
     8
 71
     3
 72
    11
 73
     7
 74
     0
 42
0.00000001
 43
0.00000001
 40
0.0
 40
0.0
 40
0.0
 40
0.0
 40
0.0380365766504879
 40
0.3610160601414004
 40
0.6805249857555553
 40
0.9999999999999999
 40
0.9999999999999999
 40
0.9999999999999999
 40
0.9999999999999999
 10
8952.255993372823
 20
6098.018358761428
 30
0.0
 10
8952.260764016388
 20
6098.136742008413
 30
0.0
 10
8952.306043562965
 20
6099.2603513649
 30
0.0
 10
8952.106586432208
 20
6101.417056310299
 30
0.0
 10
8951.661222272734
 20
6104.400693610514
 30
0.0
 10
8951.136388319996
 20
6106.365817305683
 30
0.0
 10
8950.873985270297
 20
6107.348327007954
 30
0.0
  0
SPLINE
  5
13D
330
1F
100
AcDbEntity
  8
0
  6
Continuous
 62
     7
370
    25
100
AcDbSpline
210
0.0
220
0.0
230
1.0
 70
     8
 71
     3
 72
    11
 73
     7
 74
     0
 42
0.00000001
 43
0.00000001
 40
0.0
 40
0.0
 40
0.0
 40
0.0
 40
0.038036576291815
 40
0.3610160598043302
 40
0.680524985393881
 40
1.0
 40
1.0
 40
1.0
 40
1.0
 10
8917.491977167665
 20
6091.507999042617
 30
0.0
 10
8917.487206524132
 20
6091.389615796751
 30
0.0
 10
8917.441926977477
 20
6090.26600644134
 30
0.0
 10
8917.641384108067
 20
6088.10930149684
 30
0.0
 10
8918.086748267446
 20
6085.125664195393
 30
0.0
 10
8918.611582220354
 20
6083.160540499077
 30
0.0
 10
8918.873985270297
 20
6082.178030795639
 30
0.0
  0
SPLINE
  5
13E
330
1F
100
AcDbEntity
  8
0
  6
Continuous
 62
     7
370
    25
100
AcDbSpline
210
0.0
220
0.0
230
1.0
 70
     8
 71
     3
 72
    11
 73
     7
 74
     0
 42
0.00000001
 43
0.00000001
 40
0.0
 40
0.0
 40
0.0
 40
0.0
 40
0.3068147069093355
 40
0.6310181785649324
 40
0.9403479131105897
 40
0.9999999999999999
 40
0.9999999999999999
 40
0.9999999999999999
 40
0.9999999999999999
 10
8950.873985270297
 20
6082.205498006503
 30
0.0
 10
8951.127961039814
 20
6083.143276285607
 30
0.0
 10
8951.65030668972
 20
6085.07198155381
 30
0.0
 10
8952.088949180737
 20
6087.972440124806
 30
0.0
 10
8952.298879434931
 20
6090.151675821891
 30
0.0
 10
8952.254967015504
 20
6091.294947751987
 30
0.0
 10
8952.247867837965
 20
6091.479776793826
 30
0.0
  0
SPLINE
  5
13F
330
1F
100
AcDbEntity
  8
0
  6
Continuous
 62
     7
370
    25
100
AcDbSpline
210
0.0
220
0.0
230
1.0
 70
     8
 71
     3
 72
    11
 73
     7
 74
     0
 42
0.00000001
 43
0.00000001
 40
0.0
 40
0.0
 40
0.0
 40
0.0
 40
0.3068147068959092
 40
0.6310181785528455
 40
0.9403479130995435
 40
1.0
 40
1.0
 40
1.0
 40
1.0
 10
8918.873985270297
 20
6107.320859797552
 30
0.0
 10
8918.620009500788
 20
6106.383081518492
 30
0.0
 10
8918.097663850891
 20
6104.454376250331
 30
0.0
 10
8917.659021359868
 20
6101.553917679375
 30
0.0
 10
8917.449091105667
 20
6099.374681982255
 30
0.0
 10
8917.493003525093
 20
6098.231410052123
 30
0.0
 10
8917.500102702632
 20
6098.046581010249
 30
0.0
  0
LINE
  5
140
330
1F
100
AcDbEntity
  8
0
  6
Continuous
 62
     7
370
    25
100
AcDbLine
 10
8952.2706230932
 20
6091.4788414381
 30
0.0
 11
8952.2706230932
 21
6098.0328178881
 31
0.0
  0
LINE
  5
141
330
1F
100
AcDbEntity
  8
0
  6
Continuous
 62
     7
370
    25
100
AcDbLine
 10
8917.4773474474
 20
6098.047516366
 30
0.0
 11
8917.4773474474
 21
6091.493539916
 31
0.0
  0
LINE
  5
142
330
1F
100
AcDbEntity
  8
0
  6
Continuous
 62
     7
370
    25
100
AcDbLine
 10
8917.4773474474
 20
6091.493539916
 30
0.0
 11
8917.4773474474
 21
6091.4788414381
 31
0.0
  0
LINE
  5
143
330
1F
100
AcDbEntity
  8
0
  6
Continuous
 62
     7
370
    25
100
AcDbLine
 10
8990.3739852703
 20
6408.513178902
 30
0.0
 11
8990.3739852703
 21
6395.013178902
 31
0.0
  0
LINE
  5
144
330
1F
100
AcDbEntity
  8
0
  6
Continuous
 62
     7
370
    25
100
AcDbLine
 10
8990.3739852703
 20
6395.013178902
 30
0.0
 11
8979.3739852703
 21
6395.013178902
 31
0.0
  0
LINE
  5
145
330
1F
100
AcDbEntity
  8
0
  6
Continuous
 62
     7
370
    25
100
AcDbLine
 10
8979.3739852703
 20
6395.013178902
 30
0.0
 11
8979.3739852703
 21
6408.513178902
 31
0.0
  0
LINE
  5
146
330
1F
100
AcDbEntity
  8
0
  6
Continuous
 62
     7
370
    25
100
AcDbLine
 10
8979.3739852703
 20
6408.513178902
 30
0.0
 11
8990.3739852703
 21
6408.513178902
 31
0.0
  0
LINE
  5
147
330
1F
100
AcDbEntity
  8
0
  6
Continuous
 62
     7
370
    25
100
AcDbLine
 10
8979.3739852703
 20
6390.513178902
 30
0.0
 11
8985.8739852703
 21
6390.513178902
 31
0.0
  0
LINE
  5
148
330
1F
100
AcDbEntity
  8
0
  6
Continuous
 62
     7
370
    25
100
AcDbLine
 10
8979.3739852703
 20
6390.513178902
 30
0.0
 11
8979.3739852703
 21
6395.013178902
 31
0.0
  0
ARC
  5
149
330
1F
100
AcDbEntity
  8
0
  6
Continuous
 62
     7
370
    25
100
AcDbCircle
 10
8985.8739852703
 20
6395.013178902
 30
0.0
 40
4.5
100
AcDbArc
 50
270.0
 51
0.0
  0
LINE
  5
14A
330
1F
100
AcDbEntity
  8
0
  6
Continuous
 62
     7
370
    25
100
AcDbLine
 10
8890.3739852703
 20
6408.513178902
 30
0.0
 11
8890.3739852703
 21
6395.013178902
 31
0.0
  0
LINE
  5
14B
330
1F
100
AcDbEntity
  8
0
  6
Continuous
 62
     7
370
    25
100
AcDbLine
 10
8890.3739852703
 20
6395.013178902
 30
0.0
 11
8979.3739852703
 21
6395.013178902
 31
0.0
  0
LINE
  5
14C
330
1F
100
AcDbEntity
  8
0
  6
Continuous
 62
     7
370
    25
100
AcDbLine
 10
8979.3739852703
 20
6408.513178902
 30
0.0
 11
8890.3739852703
 21
6408.513178902
 31
0.0
  0
LINE
  5
14D
330
1F
100
AcDbEntity
  8
0
  6
Continuous
 62
     7
370
    25
100
AcDbLine
 10
8979.3739852703
 20
6390.513178902
 30
0.0
 11
8890.3739852703
 21
6390.513178902
 31
0.0
  0
LINE
  5
14E
330
1F
100
AcDbEntity
  8
0
  6
Continuous
 62
     7
370
    25
100
AcDbLine
 10
8890.3739852703
 20
6395.013178902
 30
0.0
 11
8890.3739852703
 21
6390.513178902
 31
0.0
  0
LINE
  5
14F
330
1F
100
AcDbEntity
  8
0
  6
Continuous
 62
     7
370
    25
100
AcDbLine
 10
8890.3739852703
 20
6395.013178902
 30
0.0
 11
8879.3739852703
 21
6395.013178902
 31
0.0
  0
LINE
  5
150
330
1F
100
AcDbEntity
  8
0
  6
Continuous
 62
     7
370
    25
100
AcDbLine
 10
8879.3739852703
 20
6395.013178902
 30
0.0
 11
8879.3739852703
 21
6408.513178902
 31
0.0
  0
LINE
  5
151
330
1F
100
AcDbEntity
  8
0
  6
Continuous
 62
     7
370
    25
100
AcDbLine
 10
8879.3739852703
 20
6408.513178902
 30
0.0
 11
8890.3739852703
 21
6408.513178902
 31
0.0
  0
LINE
  5
152
330
1F
100
AcDbEntity
  8
0
  6
Continuous
 62
     7
370
    25
100
AcDbLine
 10
8883.8739852703
 20
6390.513178902
 30
0.0
 11
8890.3739852703
 21
6390.513178902
 31
0.0
  0
ARC
  5
153
330
1F
100
AcDbEntity
  8
0
  6
Continuous
 62
     7
370
    25
100
AcDbCircle
 10
8883.8739852703
 20
6395.013178902
 30
0.0
 40
4.5
100
AcDbArc
 50
180.0
 51
270.0
  0
LINE
  5
154
330
1F
100
AcDbEntity
  8
0
  6
Continuous
 62
     8
370
    25
100
AcDbLine
 10
8934.8739852703
 20
5692.638178902
 30
0.0
 11
8918.8739852703
 21
5692.638178902
 31
0.0
  0
LINE
  5
155
330
1F
100
AcDbEntity
  8
0
  6
Continuous
 62
     8
370
    25
100
AcDbLine
 10
8950.8739852703
 20
5692.638178902
 30
0.0
 11
8934.8739852703
 21
5692.638178902
 31
0.0
  0
SPLINE
  5
156
330
1F
100
AcDbEntity
  8
0
  6
Continuous
 62
     8
370
    25
100
AcDbSpline
210
0.0
220
0.0
230
1.0
 70
     8
 71
     3
 72
    11
 73
     7
 74
     0
 42
0.00000001
 43
0.00000001
 40
0.0
 40
0.0
 40
0.0
 40
0.0
 40
0.0609216653332998
 40
0.4630820157062523
 40
0.8603525839908455
 40
0.9999999999999999
 40
0.9999999999999999
 40
0.9999999999999999
 40
0.9999999999999999
 10
8952.258776350729
 20
6098.018198772207
 30
0.0
 10
8952.262096561135
 20
6098.152942688382
 30
0.0
 10
8952.287334376277
 20
6099.177167550991
 30
0.0
 10
8952.02029192349
 20
6101.089916818488
 30
0.0
 10
8951.529933858115
 20
6103.251520191475
 30
0.0
 10
8951.009377244647
 20
6104.563255372306
 30
0.0
 10
8950.873985270297
 20
6104.904425595412
 30
0.0
  0
SPLINE
  5
157
330
1F
100
AcDbEntity
  8
0
  6
Continuous
 62
     8
370
    25
100
AcDbSpline
210
0.0
220
0.0
230
1.0
 70
     8
 71
     3
 72
    11
 73
     7
 74
     0
 42
0.00000001
 43
0.00000001
 40
0.0
 40
0.0
 40
0.0
 40
0.0
 40
0.0609216653313694
 40
0.4630820157087612
 40
0.8603525839928147
 40
1.0
 40
1.0
 40
1.0
 40
1.0
 10
8917.489194189866
 20
6091.508159031833
 30
0.0
 10
8917.48587397946
 20
6091.373415115664
 30
0.0
 10
8917.46063616432
 20
6090.349190253055
 30
0.0
 10
8917.727678617108
 20
6088.436440985563
 30
0.0
 10
8918.218036682485
 20
6086.274837612583
 30
0.0
 10
8918.73859329595
 20
6084.963102431765
 30
0.0
 10
8918.873985270297
 20
6084.621932208665
 30
0.0
  0
SPLINE
  5
158
330
1F
100
AcDbEntity
  8
0
  6
Continuous
 62
     8
370
    25
100
AcDbSpline
210
0.0
220
0.0
230
1.0
 70
     8
 71
     3
 72
    11
 73
     7
 74
     0
 42
0.00000001
 43
0.00000001
 40
0.0
 40
0.0
 40
0.0
 40
0.0
 40
0.1375725565164292
 40
0.5384040978816046
 40
0.9383929803056679
 40
1.0
 40
1.0
 40
1.0
 40
1.0
 10
8950.873985270297
 20
6084.619995325037
 30
0.0
 10
8951.007135408196
 20
6084.955525538922
 30
0.0
 10
8951.528231924054
 20
6086.268656927141
 30
0.0
 10
8952.01705298544
 20
6088.413333285909
 30
0.0
 10
8952.28763520677
 20
6090.360342248162
 30
0.0
 10
8952.2613240606
 20
6091.348354562338
 30
0.0
 10
8952.257812436488
 20
6091.480219888304
 30
0.0
  0
SPLINE
  5
159
330
1F
100
AcDbEntity
  8
0
  6
Continuous
 62
     8
370
    25
100
AcDbSpline
210
0.0
220
0.0
230
1.0
 70
     8
 71
     3
 72
    11
 73
     7
 74
     0
 42
0.00000001
 43
0.00000001
 40
0.0
 40
0.0
 40
0.0
 40
0.0
 40
0.1375725565138561
 40
0.5384040978764785
 40
0.9383929803026966
 40
0.9999999999999999
 40
0.9999999999999999
 40
0.9999999999999999
 40
0.9999999999999999
 10
8918.873985270297
 20
6104.906362479038
 30
0.0
 10
8918.740835132401
 20
6104.570832265158
 30
0.0
 10
8918.219738616546
 20
6103.257700876952
 30
0.0
 10
8917.73091755516
 20
6101.113024518189
 30
0.0
 10
8917.460335333824
 20
6099.166015555931
 30
0.0
 10
8917.486646479994
 20
6098.178003241744
 30
0.0
 10
8917.490158104107
 20
6098.046137915771
 30
0.0
  0
ENDSEC
  0
SECTION
  2
OBJECTS
  0
DICTIONARY
  5
C
330
0
100
AcDbDictionary
281
     1
  3
ACAD_GROUP
350
D
  3
ACAD_LAYOUT
350
1A
  3
ACAD_MLINESTYLE
350
17
  3
ACAD_PLOTSETTINGS
350
19
  3
ACAD_PLOTSTYLENAME
350
E
  3
ACAD_SCALELIST
350
47
  3
DWGPROPS
350
15A
  0
DICTIONARY
  5
D
102
{ACAD_REACTORS
330
C
102
}
330
C
100
AcDbDictionary
281
     1
  0
DICTIONARY
  5
1A
102
{ACAD_REACTORS
330
C
102
}
330
C
100
AcDbDictionary
281
     1
  3
Layout1
350
1E
  3
Layout2
350
26
  3
Model
350
22
  0
DICTIONARY
  5
17
102
{ACAD_REACTORS
330
C
102
}
330
C
100
AcDbDictionary
281
     1
  3
Standard
350
18
  0
DICTIONARY
  5
19
102
{ACAD_REACTORS
330
C
102
}
330
C
100
AcDbDictionary
281
     1
  0
ACDBDICTIONARYWDFLT
  5
E
102
{ACAD_REACTORS
330
C
102
}
330
C
100
AcDbDictionary
281
     1
  3
Normal
350
F
100
AcDbDictionaryWithDefault
340
F
  0
DICTIONARY
  5
47
102
{ACAD_REACTORS
330
C
102
}
330
C
100
AcDbDictionary
281
     1
  3
A0
350
48
  3
A1
350
49
  3
A2
350
4A
  3
A3
350
4B
  3
A4
350
4C
  3
A5
350
4D
  3
A6
350
4E
  3
A7
350
4F
  3
A8
350
50
  3
A9
350
51
  3
B0
350
52
  3
B1
350
53
  3
B2
350
54
  3
B3
350
55
  3
B4
350
56
  3
B5
350
57
  3
B6
350
58
  3
B7
350
59
  3
B8
350
5A
  3
B9
350
5B
  3
C0
350
5C
  3
C1
350
5D
  3
C2
350
5E
  3
C3
350
5F
  3
C4
350
60
  3
C5
350
61
  3
C6
350
62
  3
C7
350
63
  3
C8
350
64
  3
C9
350
65
  3
D0
350
66
  3
D1
350
67
  3
D2
350
68
  0
XRECORD
  5
15A
102
{ACAD_REACTORS
330
C
102
}
330
C
100
AcDbXrecord
280
     1
  1
DWGPROPS COOKIE
  2

  3

  4

  6

  7

  8
radek.stransky
  9

300
=
301
=
302
=
303
=
304
=
305
=
306
=
307
=
308
=
309
=
 40
0.0
 41
2460320.276301389
 42
2460320.276302037
  1

 90
        0
  0
LAYOUT
  5
1E
102
{ACAD_REACTORS
330
1A
102
}
330
1A
100
AcDbPlotSettings
  1

  2
none_device
  4

  6

 40
0.0
 41
0.0
 42
0.0
 43
0.0
 44
0.0
 45
0.0
 46
0.0
 47
0.0
 48
0.0
 49
0.0
140
0.0
141
0.0
142
1.0
143
1.0
 70
   688
 72
     1
 73
     0
 74
     5
  7

 75
    16
147
1.0
148
0.0
149
0.0
100
AcDbLayout
  1
Layout1
 70
     1
 71
     1
 10
0.0
 20
0.0
 11
420.0
 21
297.0
 12
0.0
 22
0.0
 32
0.0
 14
1.0000000000E+20
 24
1.0000000000E+20
 34
1.0000000000E+20
 15
-1.0000000000E+20
 25
-1.0000000000E+20
 35
-1.0000000000E+20
146
0.0
 13
0.0
 23
0.0
 33
0.0
 16
1.0
 26
0.0
 36
0.0
 17
0.0
 27
1.0
 37
0.0
 76
     0
330
1B
  0
LAYOUT
  5
26
102
{ACAD_REACTORS
330
1A
102
}
330
1A
100
AcDbPlotSettings
  1

  2
none_device
  4

  6

 40
0.0
 41
0.0
 42
0.0
 43
0.0
 44
0.0
 45
0.0
 46
0.0
 47
0.0
 48
0.0
 49
0.0
140
0.0
141
0.0
142
1.0
143
1.0
 70
   688
 72
     1
 73
     0
 74
     5
  7

 75
    16
147
1.0
148
0.0
149
0.0
100
AcDbLayout
  1
Layout2
 70
     1
 71
     2
 10
0.0
 20
0.0
 11
0.0
 21
0.0
 12
0.0
 22
0.0
 32
0.0
 14
0.0
 24
0.0
 34
0.0
 15
0.0
 25
0.0
 35
0.0
146
0.0
 13
0.0
 23
0.0
 33
0.0
 16
1.0
 26
0.0
 36
0.0
 17
0.0
 27
1.0
 37
0.0
 76
     0
330
23
  0
LAYOUT
  5
22
102
{ACAD_REACTORS
330
1A
102
}
330
1A
100
AcDbPlotSettings
  1

  2
none_device
  4
Letter_(8.50_x_11.00_Inches)
  6

 40
6.35
 41
6.35
 42
6.35000508
 43
6.35000508
 44
215.9
 45
279.4
 46
0.0
 47
0.0
 48
0.0
 49
0.0
140
0.0
141
0.0
142
1.0
143
1.0
 70
  1712
 72
     1
 73
     0
 74
     0
  7

 75
     0
147
1.0
148
0.0
149
0.0
100
AcDbLayout
  1
Model
 70
     1
 71
     0
 10
0.0
 20
0.0
 11
20000.0
 21
10000.0
 12
0.0
 22
0.0
 32
0.0
 14
0.0
 24
0.0
 34
0.0
 15
20000.0
 25
10000.0
 35
0.0
146
0.0
 13
0.0
 23
0.0
 33
0.0
 16
1.0
 26
0.0
 36
0.0
 17
0.0
 27
1.0
 37
0.0
 76
     0
330
1F
331
29
  0
MLINESTYLE
  5
18
102
{ACAD_REACTORS
330
17
102
}
330
17
100
AcDbMlineStyle
  2
Standard
 70
     0
  3

 62
   256
 51
90.0
 52
90.0
 71
     2
 49
0.5
 62
   256
  6
BYLAYER
 49
-0.5
 62
   256
  6
BYLAYER
  0
ACDBPLACEHOLDER
  5
F
102
{ACAD_REACTORS
330
E
102
}
330
E
  0
SCALE
  5
48
102
{ACAD_REACTORS
330
47
102
}
330
47
100
AcDbScale
 70
     0
300
1:1
140
1.0
141
1.0
290
     1
  0
SCALE
  5
49
102
{ACAD_REACTORS
330
47
102
}
330
47
100
AcDbScale
 70
     0
300
1:2
140
1.0
141
2.0
290
     0
  0
SCALE
  5
4A
102
{ACAD_REACTORS
330
47
102
}
330
47
100
AcDbScale
 70
     0
300
1:4
140
1.0
141
4.0
290
     0
  0
SCALE
  5
4B
102
{ACAD_REACTORS
330
47
102
}
330
47
100
AcDbScale
 70
     0
300
1:5
140
1.0
141
5.0
290
     0
  0
SCALE
  5
4C
102
{ACAD_REACTORS
330
47
102
}
330
47
100
AcDbScale
 70
     0
300
1:8
140
1.0
141
8.0
290
     0
  0
SCALE
  5
4D
102
{ACAD_REACTORS
330
47
102
}
330
47
100
AcDbScale
 70
     0
300
1:10
140
1.0
141
10.0
290
     0
  0
SCALE
  5
4E
102
{ACAD_REACTORS
330
47
102
}
330
47
100
AcDbScale
 70
     0
300
1:16
140
1.0
141
16.0
290
     0
  0
SCALE
  5
4F
102
{ACAD_REACTORS
330
47
102
}
330
47
100
AcDbScale
 70
     0
300
1:20
140
1.0
141
20.0
290
     0
  0
SCALE
  5
50
102
{ACAD_REACTORS
330
47
102
}
330
47
100
AcDbScale
 70
     0
300
1:30
140
1.0
141
30.0
290
     0
  0
SCALE
  5
51
102
{ACAD_REACTORS
330
47
102
}
330
47
100
AcDbScale
 70
     0
300
1:40
140
1.0
141
40.0
290
     0
  0
SCALE
  5
52
102
{ACAD_REACTORS
330
47
102
}
330
47
100
AcDbScale
 70
     0
300
1:50
140
1.0
141
50.0
290
     0
  0
SCALE
  5
53
102
{ACAD_REACTORS
330
47
102
}
330
47
100
AcDbScale
 70
     0
300
1:100
140
1.0
141
100.0
290
     0
  0
SCALE
  5
54
102
{ACAD_REACTORS
330
47
102
}
330
47
100
AcDbScale
 70
     0
300
2:1
140
2.0
141
1.0
290
     0
  0
SCALE
  5
55
102
{ACAD_REACTORS
330
47
102
}
330
47
100
AcDbScale
 70
     0
300
4:1
140
4.0
141
1.0
290
     0
  0
SCALE
  5
56
102
{ACAD_REACTORS
330
47
102
}
330
47
100
AcDbScale
 70
     0
300
8:1
140
8.0
141
1.0
290
     0
  0
SCALE
  5
57
102
{ACAD_REACTORS
330
47
102
}
330
47
100
AcDbScale
 70
     0
300
10:1
140
10.0
141
1.0
290
     0
  0
SCALE
  5
58
102
{ACAD_REACTORS
330
47
102
}
330
47
100
AcDbScale
 70
     0
300
100:1
140
100.0
141
1.0
290
     0
  0
SCALE
  5
59
102
{ACAD_REACTORS
330
47
102
}
330
47
100
AcDbScale
 70
     0
300
1/128" = 1'-0"
140
0.0078125
141
12.0
290
     0
  0
SCALE
  5
5A
102
{ACAD_REACTORS
330
47
102
}
330
47
100
AcDbScale
 70
     0
300
1/64" = 1'-0"
140
0.015625
141
12.0
290
     0
  0
SCALE
  5
5B
102
{ACAD_REACTORS
330
47
102
}
330
47
100
AcDbScale
 70
     0
300
1/32" = 1'-0"
140
0.03125
141
12.0
290
     0
  0
SCALE
  5
5C
102
{ACAD_REACTORS
330
47
102
}
330
47
100
AcDbScale
 70
     0
300
1/16" = 1'-0"
140
0.0625
141
12.0
290
     0
  0
SCALE
  5
5D
102
{ACAD_REACTORS
330
47
102
}
330
47
100
AcDbScale
 70
     0
300
3/32" = 1'-0"
140
0.09375
141
12.0
290
     0
  0
SCALE
  5
5E
102
{ACAD_REACTORS
330
47
102
}
330
47
100
AcDbScale
 70
     0
300
1/8" = 1'-0"
140
0.125
141
12.0
290
     0
  0
SCALE
  5
5F
102
{ACAD_REACTORS
330
47
102
}
330
47
100
AcDbScale
 70
     0
300
3/16" = 1'-0"
140
0.1875
141
12.0
290
     0
  0
SCALE
  5
60
102
{ACAD_REACTORS
330
47
102
}
330
47
100
AcDbScale
 70
     0
300
1/4" = 1'-0"
140
0.25
141
12.0
290
     0
  0
SCALE
  5
61
102
{ACAD_REACTORS
330
47
102
}
330
47
100
AcDbScale
 70
     0
300
3/8" = 1'-0"
140
0.375
141
12.0
290
     0
  0
SCALE
  5
62
102
{ACAD_REACTORS
330
47
102
}
330
47
100
AcDbScale
 70
     0
300
1/2" = 1'-0"
140
0.5
141
12.0
290
     0
  0
SCALE
  5
63
102
{ACAD_REACTORS
330
47
102
}
330
47
100
AcDbScale
 70
     0
300
3/4" = 1'-0"
140
0.75
141
12.0
290
     0
  0
SCALE
  5
64
102
{ACAD_REACTORS
330
47
102
}
330
47
100
AcDbScale
 70
     0
300
1" = 1'-0"
140
1.0
141
12.0
290
     0
  0
SCALE
  5
65
102
{ACAD_REACTORS
330
47
102
}
330
47
100
AcDbScale
 70
     0
300
1-1/2" = 1'-0"
140
1.5
141
12.0
290
     0
  0
SCALE
  5
66
102
{ACAD_REACTORS
330
47
102
}
330
47
100
AcDbScale
 70
     0
300
3" = 1'-0"
140
3.0
141
12.0
290
     0
  0
SCALE
  5
67
102
{ACAD_REACTORS
330
47
102
}
330
47
100
AcDbScale
 70
     0
300
6" = 1'-0"
140
6.0
141
12.0
290
     0
  0
SCALE
  5
68
102
{ACAD_REACTORS
330
47
102
}
330
47
100
AcDbScale
 70
     0
300
1'-0" = 1'-0"
140
12.0
141
12.0
290
     0
  0
ENDSEC
  0
EOF
