  0
SECTION
  2
HEADER
  9
$ACADVER
  1
AC1015
  9
$ACADMAINTVER
 70
     6
  9
$DWGCODEPAGE
  3
ANSI_1250
  9
$INSBASE
 10
0.0
 20
0.0
 30
0.0
  9
$EXTMIN
 10
0.0
 20
0.0
 30
0.0
  9
$EXTMAX
 10
20000.0
 20
10000.0
 30
0.0
  9
$LIMMIN
 10
0.0
 20
0.0
  9
$LIMMAX
 10
20000.0
 20
10000.0
  9
$ORTHOMODE
 70
     0
  9
$REGENMODE
 70
     1
  9
$FILLMODE
 70
     1
  9
$QTEXTMODE
 70
     0
  9
$MIRRTEXT
 70
     1
  9
$LTSCALE
 40
1.0
  9
$ATTMODE
 70
     1
  9
$TEXTSIZE
 40
2.0
  9
$TRACEWID
 40
1.0
  9
$TEXTSTYLE
  7
Standard
  9
$CLAYER
  8
0
  9
$CELTYPE
  6
ByLayer
  9
$CECOLOR
 62
   256
  9
$CELTSCALE
 40
1.0
  9
$DISPSILH
 70
     0
  9
$DIMSCALE
 40
1.0
  9
$DIMASZ
 40
2.0
  9
$DIMEXO
 40
1.0
  9
$DIMDLI
 40
3.75
  9
$DIMRND
 40
0.0
  9
$DIMDLE
 40
0.0
  9
$DIMEXE
 40
1.0
  9
$DIMTP
 40
0.0
  9
$DIMTM
 40
0.0
  9
$DIMTXT
 40
2.0
  9
$DIMCEN
 40
2.5
  9
$DIMTSZ
 40
0.0
  9
$DIMTOL
 70
     0
  9
$DIMLIM
 70
     0
  9
$DIMTIH
 70
     1
  9
$DIMTOH
 70
     1
  9
$DIMSE1
 70
     0
  9
$DIMSE2
 70
     0
  9
$DIMTAD
 70
     1
  9
$DIMZIN
 70
     0
  9
$DIMBLK
  1

  9
$DIMASO
 70
     1
  9
$DIMSHO
 70
     1
  9
$DIMPOST
  1

  9
$DIMAPOST
  1

  9
$DIMALT
 70
     0
  9
$DIMALTD
 70
     3
  9
$DIMALTF
 40
0.0393700787
  9
$DIMLFAC
 40
1.0
  9
$DIMTOFL
 70
     1
  9
$DIMTVP
 40
0.0
  9
$DIMTIX
 70
     0
  9
$DIMSOXD
 70
     0
  9
$DIMSAH
 70
     0
  9
$DIMBLK1
  1

  9
$DIMBLK2
  1

  9
$DIMSTYLE
  2
ISO-25
  9
$DIMCLRD
 70
     0
  9
$DIMCLRE
 70
     0
  9
$DIMCLRT
 70
     0
  9
$DIMTFAC
 40
1.0
  9
$DIMGAP
 40
1.524
  9
$DIMJUST
 70
     0
  9
$DIMSD1
 70
     0
  9
$DIMSD2
 70
     0
  9
$DIMTOLJ
 70
     0
  9
$DIMTZIN
 70
     0
  9
$DIMALTZ
 70
     0
  9
$DIMALTTZ
 70
     0
  9
$DIMUPT
 70
     0
  9
$DIMDEC
 70
     2
  9
$DIMTDEC
 70
     0
  9
$DIMALTU
 70
     2
  9
$DIMALTTD
 70
     3
  9
$DIMTXSTY
  7
Standard
  9
$DIMAUNIT
 70
     0
  9
$DIMADEC
 70
     2
  9
$DIMALTRND
 40
0.0
  9
$DIMAZIN
 70
     0
  9
$DIMDSEP
 70
    44
  9
$DIMATFIT
 70
     3
  9
$DIMFRAC
 70
     0
  9
$DIMLDRBLK
  1

  9
$DIMLUNIT
 70
     2
  9
$DIMLWD
 70
    -2
  9
$DIMLWE
 70
    -2
  9
$DIMTMOVE
 70
     0
  9
$LUNITS
 70
     2
  9
$LUPREC
 70
     3
  9
$SKETCHINC
 40
1.0
  9
$FILLETRAD
 40
10.0
  9
$AUNITS
 70
     0
  9
$AUPREC
 70
     2
  9
$MENU
  1
.
  9
$ELEVATION
 40
0.0
  9
$PELEVATION
 40
0.0
  9
$THICKNESS
 40
0.0
  9
$LIMCHECK
 70
     0
  9
$CHAMFERA
 40
0.0
  9
$CHAMFERB
 40
0.0
  9
$CHAMFERC
 40
0.0
  9
$CHAMFERD
 40
0.0
  9
$SKPOLY
 70
     0
  9
$TDCREATE
 40
2460438.485348461
  9
$TDUCREATE
 40
2460438.402015127
  9
$TDUPDATE
 40
2460438.485348947
  9
$TDUUPDATE
 40
2460438.402015613
  9
$TDINDWG
 40
0.0000000116
  9
$TDUSRTIMER
 40
0.0000000116
  9
$USRTIMER
 70
     1
  9
$ANGBASE
 50
0.0
  9
$ANGDIR
 70
     0
  9
$PDMODE
 70
     0
  9
$PDSIZE
 40
-1.0
  9
$PLINEWID
 40
0.0
  9
$SPLFRAME
 70
     0
  9
$SPLINETYPE
 70
     6
  9
$SPLINESEGS
 70
     8
  9
$HANDSEED
  5
1B3
  9
$SURFTAB1
 70
     6
  9
$SURFTAB2
 70
     6
  9
$SURFTYPE
 70
     6
  9
$SURFU
 70
     6
  9
$SURFV
 70
     6
  9
$UCSBASE
  2

  9
$UCSNAME
  2

  9
$UCSORG
 10
0.0
 20
0.0
 30
0.0
  9
$UCSXDIR
 10
1.0
 20
0.0
 30
0.0
  9
$UCSYDIR
 10
0.0
 20
1.0
 30
0.0
  9
$UCSORTHOREF
  2

  9
$UCSORTHOVIEW
 70
     0
  9
$UCSORGTOP
 10
0.0
 20
0.0
 30
0.0
  9
$UCSORGBOTTOM
 10
0.0
 20
0.0
 30
0.0
  9
$UCSORGLEFT
 10
0.0
 20
0.0
 30
0.0
  9
$UCSORGRIGHT
 10
0.0
 20
0.0
 30
0.0
  9
$UCSORGFRONT
 10
0.0
 20
0.0
 30
0.0
  9
$UCSORGBACK
 10
0.0
 20
0.0
 30
0.0
  9
$PUCSBASE
  2

  9
$PUCSNAME
  2

  9
$PUCSORG
 10
0.0
 20
0.0
 30
0.0
  9
$PUCSXDIR
 10
1.0
 20
0.0
 30
0.0
  9
$PUCSYDIR
 10
0.0
 20
1.0
 30
0.0
  9
$PUCSORTHOREF
  2

  9
$PUCSORTHOVIEW
 70
     0
  9
$PUCSORGTOP
 10
0.0
 20
0.0
 30
0.0
  9
$PUCSORGBOTTOM
 10
0.0
 20
0.0
 30
0.0
  9
$PUCSORGLEFT
 10
0.0
 20
0.0
 30
0.0
  9
$PUCSORGRIGHT
 10
0.0
 20
0.0
 30
0.0
  9
$PUCSORGFRONT
 10
0.0
 20
0.0
 30
0.0
  9
$PUCSORGBACK
 10
0.0
 20
0.0
 30
0.0
  9
$USERI1
 70
     0
  9
$USERI2
 70
     0
  9
$USERI3
 70
     0
  9
$USERI4
 70
     0
  9
$USERI5
 70
     0
  9
$USERR1
 40
0.0
  9
$USERR2
 40
0.0
  9
$USERR3
 40
0.0
  9
$USERR4
 40
0.0
  9
$USERR5
 40
0.0
  9
$WORLDVIEW
 70
     1
  9
$SHADEDGE
 70
     3
  9
$SHADEDIF
 70
    70
  9
$TILEMODE
 70
     1
  9
$MAXACTVP
 70
    64
  9
$PINSBASE
 10
0.0
 20
0.0
 30
0.0
  9
$PLIMCHECK
 70
     0
  9
$PEXTMIN
 10
1.0000000000E+20
 20
1.0000000000E+20
 30
1.0000000000E+20
  9
$PEXTMAX
 10
-1.0000000000E+20
 20
-1.0000000000E+20
 30
-1.0000000000E+20
  9
$PLIMMIN
 10
0.0
 20
0.0
  9
$PLIMMAX
 10
420.0
 20
297.0
  9
$UNITMODE
 70
     0
  9
$VISRETAIN
 70
     1
  9
$PLINEGEN
 70
     0
  9
$PSLTSCALE
 70
     1
  9
$TREEDEPTH
 70
  3020
  9
$CMLSTYLE
  2
Standard
  9
$CMLJUST
 70
     0
  9
$CMLSCALE
 40
20.0
  9
$PROXYGRAPHICS
 70
     1
  9
$MEASUREMENT
 70
     1
  9
$CELWEIGHT
370
    -1
  9
$ENDCAPS
280
     0
  9
$JOINSTYLE
280
     0
  9
$LWDISPLAY
290
     1
  9
$INSUNITS
 70
     4
  9
$HYPERLINKBASE
  1

  9
$STYLESHEET
  1

  9
$XEDIT
290
     1
  9
$CEPSNTYPE
380
     0
  9
$PSTYLEMODE
290
     1
  9
$FINGERPRINTGUID
  2
{fe734406-627e-4877-b00f-84c0eafc5354}
  9
$VERSIONGUID
  2
{FAEB1C32-E019-11D5-929B-00C0DF256EC4}
  9
$EXTNAMES
290
     1
  9
$PSVPSCALE
 40
0.0
  9
$OLESTARTUP
290
     0
  0
ENDSEC
  0
SECTION
  2
CLASSES
  0
CLASS
  1
ACDBDICTIONARYWDFLT
  2
AcDbDictionaryWithDefault
  3
ObjectDBX Classes
 90
        0
280
     0
281
     0
  0
CLASS
  1
VISUALSTYLE
  2
AcDbVisualStyle
  3
ObjectDBX Classes
 90
     4095
280
     0
281
     0
  0
CLASS
  1
MATERIAL
  2
AcDbMaterial
  3
ObjectDBX Classes
 90
     1153
280
     0
281
     0
  0
CLASS
  1
SCALE
  2
AcDbScale
  3
ObjectDBX Classes
 90
     1153
280
     0
281
     0
  0
CLASS
  1
TABLESTYLE
  2
AcDbTableStyle
  3
ObjectDBX Classes
 90
     4095
280
     0
281
     0
  0
CLASS
  1
MLEADERSTYLE
  2
AcDbMLeaderStyle
  3
ACDB_MLEADERSTYLE_CLASS
 90
     4095
280
     0
281
     0
  0
CLASS
  1
SUN
  2
AcDbSun
  3
SCENEOE
 90
     1153
280
     0
281
     0
  0
CLASS
  1
ACDBPLACEHOLDER
  2
AcDbPlaceHolder
  3
ObjectDBX Classes
 90
        0
280
     0
281
     0
  0
CLASS
  1
LAYOUT
  2
AcDbLayout
  3
ObjectDBX Classes
 90
        0
280
     0
281
     0
  0
ENDSEC
  0
SECTION
  2
TABLES
  0
TABLE
  2
VPORT
  5
8
330
0
100
AcDbSymbolTable
 70
     1
  0
VPORT
  5
29
330
8
100
AcDbSymbolTableRecord
100
AcDbViewportTableRecord
  2
*Active
 70
     0
 10
0.0
 20
0.0
 11
1.0
 21
1.0
 12
10000.0
 22
5000.0
 13
0.0
 23
0.0
 14
10.0
 24
10.0
 15
10.0
 25
10.0
 16
0.0
 26
0.0
 36
1.0
 17
0.0
 27
0.0
 37
0.0
 40
10000.0
 41
2.0
 42
50.0
 43
0.0
 44
0.0
 50
0.0
 51
0.0
 71
     0
 72
  2000
 73
     1
 74
     3
 75
     0
 76
     0
 77
     0
 78
     0
281
     0
 65
     1
110
0.0
120
0.0
130
0.0
111
1.0
121
0.0
131
0.0
112
0.0
122
1.0
132
0.0
 79
     0
146
0.0
  0
ENDTAB
  0
TABLE
  2
LTYPE
  5
5
330
0
100
AcDbSymbolTable
 70
     6
  0
LTYPE
  5
14
330
5
100
AcDbSymbolTableRecord
100
AcDbLinetypeTableRecord
  2
ByBlock
 70
     0
  3

 72
    65
 73
     0
 40
0.0
  0
LTYPE
  5
15
330
5
100
AcDbSymbolTableRecord
100
AcDbLinetypeTableRecord
  2
ByLayer
 70
     0
  3

 72
    65
 73
     0
 40
0.0
  0
LTYPE
  5
16
330
5
100
AcDbSymbolTableRecord
100
AcDbLinetypeTableRecord
  2
Continuous
 70
     0
  3
Solid line
 72
    65
 73
     0
 40
0.0
  0
LTYPE
  5
6E
330
5
100
AcDbSymbolTableRecord
100
AcDbLinetypeTableRecord
  2
HIDDEN
 70
     0
  3
Hidden __ __ __ __ __ __ __ __ __ __ __ __ __ __
 72
    65
 73
     2
 40
1.905
 49
1.27
 74
     0
 49
-0.635
 74
     0
  0
LTYPE
  5
6F
330
5
100
AcDbSymbolTableRecord
100
AcDbLinetypeTableRecord
  2
PHANTOM
 70
     0
  3
Phantom ______  __  __  ______  __  __  ______
 72
    65
 73
     6
 40
12.7
 49
6.35
 74
     0
 49
-1.27
 74
     0
 49
1.27
 74
     0
 49
-1.27
 74
     0
 49
1.27
 74
     0
 49
-1.27
 74
     0
  0
LTYPE
  5
70
330
5
100
AcDbSymbolTableRecord
100
AcDbLinetypeTableRecord
  2
CENTER
 70
     0
  3
Center ____ _ ____ _ ____ _ ____ _ ____ _ ____
 72
    65
 73
     4
 40
10.16
 49
6.35
 74
     0
 49
-1.27
 74
     0
 49
1.27
 74
     0
 49
-1.27
 74
     0
  0
LTYPE
  5
71
330
5
100
AcDbSymbolTableRecord
100
AcDbLinetypeTableRecord
  2
CENTERX2
 70
     0
  3
Center (2x) ________  __  ________  __  _____
 72
    65
 73
     4
 40
20.32
 49
12.7
 74
     0
 49
-2.54
 74
     0
 49
2.54
 74
     0
 49
-2.54
 74
     0
  0
LTYPE
  5
72
330
5
100
AcDbSymbolTableRecord
100
AcDbLinetypeTableRecord
  2
DOT2
 70
     0
  3
Dot (.5x) ........................................
 72
    65
 73
     2
 40
0.635
 49
0.0
 74
     0
 49
-0.635
 74
     0
  0
ENDTAB
  0
TABLE
  2
LAYER
  5
2
330
0
100
AcDbSymbolTable
 70
    13
  0
LAYER
  5
10
330
2
100
AcDbSymbolTableRecord
100
AcDbLayerTableRecord
  2
0
 70
     0
 62
     7
  6
Continuous
370
    -3
390
F
  0
LAYER
  5
73
330
2
100
AcDbSymbolTableRecord
100
AcDbLayerTableRecord
  2
FORMAT
 70
     0
 62
     7
  6
Continuous
370
    -3
390
F
  0
LAYER
  5
74
330
2
100
AcDbSymbolTableRecord
100
AcDbLayerTableRecord
  2
OSA
 70
     0
 62
     7
  6
CENTER
370
    -3
390
F
  0
LAYER
  5
75
330
2
100
AcDbSymbolTableRecord
100
AcDbLayerTableRecord
  2
0_35
 70
     0
 62
     7
  6
Continuous
370
    35
390
F
  0
LAYER
  5
76
330
2
100
AcDbSymbolTableRecord
100
AcDbLayerTableRecord
  2
0_5
 70
     0
 62
     7
  6
Continuous
370
    50
390
F
  0
LAYER
  5
77
330
2
100
AcDbSymbolTableRecord
100
AcDbLayerTableRecord
  2
0_25
 70
     0
 62
     7
  6
Continuous
370
    25
390
F
  0
LAYER
  5
78
330
2
100
AcDbSymbolTableRecord
100
AcDbLayerTableRecord
  2
0_18
 70
     0
 62
     7
  6
Continuous
370
    -3
390
F
  0
LAYER
  5
79
330
2
100
AcDbSymbolTableRecord
100
AcDbLayerTableRecord
  2
SLD-0
 70
     0
 62
   179
  6
Continuous
370
    -3
390
F
  0
LAYER
  5
7A
330
2
100
AcDbSymbolTableRecord
100
AcDbLayerTableRecord
  2
KOTY
 70
     0
 62
     7
  6
Continuous
370
    -3
390
F
  0
LAYER
  5
7B
330
2
100
AcDbSymbolTableRecord
100
AcDbLayerTableRecord
  2
SILNA
 70
     0
 62
   179
  6
Continuous
370
    -3
390
F
  0
LAYER
  5
7C
330
2
100
AcDbSymbolTableRecord
100
AcDbLayerTableRecord
  2
0_18_1
 70
     0
 62
   179
  6
Continuous
370
    -3
390
F
  0
LAYER
  5
7D
330
2
100
AcDbSymbolTableRecord
100
AcDbLayerTableRecord
  2
0_35_1
 70
     0
 62
   179
  6
Continuous
370
    35
390
F
  0
LAYER
  5
7E
330
2
100
AcDbSymbolTableRecord
100
AcDbLayerTableRecord
  2
0_5_1
 70
     0
 62
   179
  6
Continuous
370
    50
390
F
  0
ENDTAB
  0
TABLE
  2
STYLE
  5
3
330
0
100
AcDbSymbolTable
 70
     1
  0
STYLE
  5
11
330
3
100
AcDbSymbolTableRecord
100
AcDbTextStyleTableRecord
  2
Standard
 70
     0
 40
0.0
 41
1.0
 50
0.0
 71
     0
 42
2.0
  3
txt
  4

  0
ENDTAB
  0
TABLE
  2
VIEW
  5
6
330
0
100
AcDbSymbolTable
 70
     0
  0
ENDTAB
  0
TABLE
  2
UCS
  5
7
330
0
100
AcDbSymbolTable
 70
     0
  0
ENDTAB
  0
TABLE
  2
APPID
  5
9
330
0
100
AcDbSymbolTable
 70
     1
  0
APPID
  5
12
330
9
100
AcDbSymbolTableRecord
100
AcDbRegAppTableRecord
  2
ACAD
 70
     0
  0
ENDTAB
  0
TABLE
  2
DIMSTYLE
  5
A
330
0
100
AcDbSymbolTable
 70
     1
100
AcDbDimStyleTable
  0
DIMSTYLE
105
27
330
A
100
AcDbSymbolTableRecord
100
AcDbDimStyleTableRecord
  2
ISO-25
 70
     0
 41
2.5
 42
0.625
 43
3.75
 44
1.25
 73
     0
 74
     0
 77
     1
 78
     8
140
2.5
141
2.5
143
0.0393700787
147
0.625
171
     3
172
     1
178
     0
271
     2
272
     2
274
     3
278
    44
283
     0
284
     8
340
11
  0
ENDTAB
  0
TABLE
  2
BLOCK_RECORD
  5
1
330
0
100
AcDbSymbolTable
 70
     1
  0
BLOCK_RECORD
  5
1F
330
1
100
AcDbSymbolTableRecord
100
AcDbBlockTableRecord
  2
*Model_Space
340
22
  0
BLOCK_RECORD
  5
1B
330
1
100
AcDbSymbolTableRecord
100
AcDbBlockTableRecord
  2
*Paper_Space
340
1E
  0
BLOCK_RECORD
  5
23
330
1
100
AcDbSymbolTableRecord
100
AcDbBlockTableRecord
  2
*Paper_Space0
340
26
  0
ENDTAB
  0
ENDSEC
  0
SECTION
  2
BLOCKS
  0
BLOCK
  5
20
330
1F
100
AcDbEntity
  8
0
100
AcDbBlockBegin
  2
*Model_Space
 70
     0
 10
0.0
 20
0.0
 30
0.0
  3
*Model_Space
  1

  0
ENDBLK
  5
21
330
1F
100
AcDbEntity
  8
0
100
AcDbBlockEnd
  0
BLOCK
  5
1C
330
1B
100
AcDbEntity
 67
     1
  8
0
100
AcDbBlockBegin
  2
*Paper_Space
 70
     0
 10
0.0
 20
0.0
 30
0.0
  3
*Paper_Space
  1

  0
ENDBLK
  5
1D
330
1B
100
AcDbEntity
 67
     1
  8
0
100
AcDbBlockEnd
  0
BLOCK
  5
24
330
23
100
AcDbEntity
  8
0
100
AcDbBlockBegin
  2
*Paper_Space0
 70
     0
 10
0.0
 20
0.0
 30
0.0
  3
*Paper_Space0
  1

  0
ENDBLK
  5
25
330
23
100
AcDbEntity
  8
0
100
AcDbBlockEnd
  0
ENDSEC
  0
SECTION
  2
ENTITIES
  0
SPLINE
  5
7F
330
1F
100
AcDbEntity
  8
0
  6
Continuous
 62
     7
370
    25
100
AcDbSpline
210
0.0
220
0.0
230
1.0
 70
     8
 71
     3
 72
    14
 73
    10
 74
     0
 42
0.00000001
 43
0.00000001
 40
0.0
 40
0.0
 40
0.0
 40
0.0
 40
0.2218193067933452
 40
0.4388314069484399
 40
0.6223454544790795
 40
0.7747278309593102
 40
0.8948381732915641
 40
0.980121116503516
 40
1.0
 40
1.0
 40
1.0
 40
1.0
 10
6222.285429251729
 20
5024.081958041098
 30
0.0
 10
6222.246967394214
 20
5024.059203495262
 30
0.0
 10
6222.170877213917
 20
5024.014187533815
 30
0.0
 10
6222.092999671354
 20
5023.913937425701
 30
0.0
 10
6222.045005008518
 20
5023.813871311061
 30
0.0
 10
6222.023196329949
 20
5023.724573381536
 30
0.0
 10
6222.017791114723
 20
5023.653471711911
 30
0.0
 10
6222.019639328867
 20
5023.60761078098
 30
0.0
 10
6222.022139313663
 20
5023.587673408109
 30
0.0
 10
6222.022611889198
 20
5023.58390461933
 30
0.0
  0
SPLINE
  5
80
330
1F
100
AcDbEntity
  8
0
  6
Continuous
 62
     7
370
    25
100
AcDbSpline
210
0.0
220
0.0
230
1.0
 70
     8
 71
     3
 72
    13
 73
     9
 74
     0
 42
0.00000001
 43
0.00000001
 40
0.0
 40
0.0
 40
0.0
 40
0.0
 40
0.0557326081918148
 40
0.1818641317321954
 40
0.4240514981960133
 40
0.6586393493394301
 40
0.9291718655795598
 40
0.9999999999999999
 40
0.9999999999999999
 40
0.9999999999999999
 40
0.9999999999999999
 10
6222.022638513555
 20
4996.814793384816
 30
0.0
 10
6222.021453055892
 20
4996.803541435404
 30
0.0
 10
6222.01758472395
 20
4996.766824581907
 30
0.0
 10
6222.020466780435
 20
4996.678853128356
 30
0.0
 10
6222.051571878955
 20
4996.556278440535
 30
0.0
 10
6222.134454947462
 20
4996.426281125568
 30
0.0
 10
6222.222239754437
 20
4996.338178915401
 30
0.0
 10
6222.289069613256
 20
4996.315553367215
 30
0.0
 10
6222.30293598659
 20
4996.310858844384
 30
0.0
  0
LINE
  5
81
330
1F
100
AcDbEntity
  8
0
  6
Continuous
 62
     7
370
    25
100
AcDbLine
 10
6222.0187553361
 20
5023.583948732
 30
0.0
 11
6222.0187553361
 21
4996.8149604534
 31
0.0
  0
LINE
  5
82
330
1F
100
AcDbEntity
  8
0
  6
Continuous
 62
     7
370
    25
100
AcDbLine
 10
6265.7687553361
 20
5028.4994545927
 30
0.0
 11
6265.5687553361
 21
5028.6994545927
 31
0.0
  0
LINE
  5
83
330
1F
100
AcDbEntity
  8
0
  6
Continuous
 62
     7
370
    25
100
AcDbLine
 10
6222.4687553361
 20
5028.6994545927
 30
0.0
 11
6222.2687553361
 21
5028.4994545927
 31
0.0
  0
LINE
  5
84
330
1F
100
AcDbEntity
  8
0
  6
Continuous
 62
     7
370
    25
100
AcDbLine
 10
6265.7687553361
 20
4978.1994545927
 30
0.0
 11
6265.7687553361
 21
5028.4994545927
 31
0.0
  0
LINE
  5
85
330
1F
100
AcDbEntity
  8
0
  6
Continuous
 62
     7
370
    25
100
AcDbLine
 10
6222.2687553361
 20
4996.2644145664
 30
0.0
 11
6222.2687553361
 21
4978.1994545927
 31
0.0
  0
LINE
  5
86
330
1F
100
AcDbEntity
  8
0
  6
Continuous
 62
     7
370
    25
100
AcDbLine
 10
6222.2687553361
 20
5028.4994545927
 30
0.0
 11
6222.2687553361
 21
5024.134494619
 31
0.0
  0
LINE
  5
87
330
1F
100
AcDbEntity
  8
0
  6
Continuous
 62
     7
370
    25
100
AcDbLine
 10
6219.2687553361
 20
4978.1994545927
 30
0.0
 11
6219.2687553361
 21
4972.1994545927
 31
0.0
  0
LINE
  5
88
330
1F
100
AcDbEntity
  8
0
  6
Continuous
 62
     7
370
    25
100
AcDbLine
 10
6268.7687553361
 20
4972.1994545927
 30
0.0
 11
6268.7687553361
 21
4978.1994545927
 31
0.0
  0
LINE
  5
89
330
1F
100
AcDbEntity
  8
0
  6
Continuous
 62
     7
370
    25
100
AcDbLine
 10
6222.5187553361
 20
5029.1994545927
 30
0.0
 11
6223.0187553361
 21
5028.6994545927
 31
0.0
  0
LINE
  5
8A
330
1F
100
AcDbEntity
  8
0
  6
Continuous
 62
     7
370
    25
100
AcDbLine
 10
6265.0187553361
 20
5028.6994545927
 30
0.0
 11
6265.5187553361
 21
5029.1994545927
 31
0.0
  0
LINE
  5
8B
330
1F
100
AcDbEntity
  8
0
  6
Continuous
 62
     7
370
    25
100
AcDbLine
 10
6265.5187553361
 20
5029.1994545927
 30
0.0
 11
6265.5187553361
 21
5032.1994545927
 31
0.0
  0
LINE
  5
8C
330
1F
100
AcDbEntity
  8
0
  6
Continuous
 62
     7
370
    25
100
AcDbLine
 10
6222.5187553361
 20
5032.1994545927
 30
0.0
 11
6222.5187553361
 21
5029.1994545927
 31
0.0
  0
LINE
  5
8D
330
1F
100
AcDbEntity
  8
0
  6
Continuous
 62
     7
370
    25
100
AcDbLine
 10
6265.5187553361
 20
5032.1994545927
 30
0.0
 11
6265.0187553361
 21
5032.6994545927
 31
0.0
  0
LINE
  5
8E
330
1F
100
AcDbEntity
  8
0
  6
Continuous
 62
     7
370
    25
100
AcDbLine
 10
6223.0187553361
 20
5032.6994545927
 30
0.0
 11
6222.5187553361
 21
5032.1994545927
 31
0.0
  0
LINE
  5
8F
330
1F
100
AcDbEntity
  8
0
  6
Continuous
 62
     7
370
    25
100
AcDbLine
 10
6265.7687553361
 20
5057.921810657
 30
0.0
 11
6294.7687553361
 21
5057.921810657
 31
0.0
  0
LINE
  5
90
330
1F
100
AcDbEntity
  8
0
  6
Continuous
 62
     7
370
    25
100
AcDbLine
 10
6294.7687553361
 20
5101.421810657
 30
0.0
 11
6265.7687553361
 21
5101.421810657
 31
0.0
  0
LINE
  5
91
330
1F
100
AcDbEntity
  8
0
  6
Continuous
 62
     7
370
    25
100
AcDbLine
 10
6265.7687553361
 20
5101.421810657
 30
0.0
 11
6265.7687553361
 21
5141.6994545927
 31
0.0
  0
LINE
  5
92
330
1F
100
AcDbEntity
  8
0
  6
Continuous
 62
     7
370
    25
100
AcDbLine
 10
6265.7687553361
 20
5032.6994545927
 30
0.0
 11
6265.7687553361
 21
5057.921810657
 31
0.0
  0
LINE
  5
93
330
1F
100
AcDbEntity
  8
0
  6
Continuous
 62
     7
370
    25
100
AcDbLine
 10
6222.2687553361
 20
5141.6994545927
 30
0.0
 11
6222.2687553361
 21
5032.6994545927
 31
0.0
  0
LINE
  5
94
330
1F
100
AcDbEntity
  8
0
  6
Continuous
 62
     7
370
    25
100
AcDbLine
 10
6294.7687553361
 20
5058.021810657
 30
0.0
 11
6296.7687553361
 21
5058.021810657
 31
0.0
  0
LINE
  5
95
330
1F
100
AcDbEntity
  8
0
  6
Continuous
 62
     7
370
    25
100
AcDbLine
 10
6296.7687553361
 20
5101.321810657
 30
0.0
 11
6294.7687553361
 21
5101.321810657
 31
0.0
  0
ARC
  5
96
330
1F
100
AcDbEntity
  8
0
  6
Continuous
 62
     7
370
    25
100
AcDbCircle
 10
6296.7687553361
 20
5079.671810657
 30
0.0
 40
19.85000000000036
100
AcDbArc
 50
270.0
 51
298.1646960386
  0
LWPOLYLINE
  5
97
330
1F
100
AcDbEntity
  8
0
  6
Continuous
 62
     7
370
    25
100
AcDbPolyline
 90
        3
 70
   128
 43
0.0
 10
6299.7687553361
 20
5099.2938008721
 10
6299.5937048758
 20
5099.3197662783
 10
6296.7687553361
 20
5099.521810657
  0
LINE
  5
98
330
1F
100
AcDbEntity
  8
0
  6
Continuous
 62
     7
370
    25
100
AcDbLine
 10
6255.5187553361
 20
5141.6994545927
 30
0.0
 11
6255.5187553361
 21
5142.1994545927
 31
0.0
  0
LINE
  5
99
330
1F
100
AcDbEntity
  8
0
  6
Continuous
 62
     7
370
    25
100
AcDbLine
 10
6232.5187553361
 20
5142.1994545927
 30
0.0
 11
6232.5187553361
 21
5141.6994545927
 31
0.0
  0
LINE
  5
9A
330
1F
100
AcDbEntity
  8
0
  6
Continuous
 62
     7
370
    25
100
AcDbLine
 10
6256.0187553361
 20
5254.1994545927
 30
0.0
 11
6256.0187553361
 21
5313.9711364782
 31
0.0
  0
LINE
  5
9B
330
1F
100
AcDbEntity
  8
0
  6
Continuous
 62
     7
370
    25
100
AcDbLine
 10
6232.0187553361
 20
5313.9711364782
 30
0.0
 11
6232.0187553361
 21
5254.1994545927
 31
0.0
  0
LINE
  5
9C
330
1F
100
AcDbEntity
  8
0
  6
Continuous
 62
     7
370
    25
100
AcDbLine
 10
6234.0187553361
 20
5254.1994545927
 30
0.0
 11
6234.0187553361
 21
5251.2108704984
 31
0.0
  0
LINE
  5
9D
330
1F
100
AcDbEntity
  8
0
  6
Continuous
 62
     7
370
    25
100
AcDbLine
 10
6254.0187553361
 20
5251.2108704984
 30
0.0
 11
6254.0187553361
 21
5254.1994545927
 31
0.0
  0
LINE
  5
9E
330
1F
100
AcDbEntity
  8
0
  6
Continuous
 62
     7
370
    25
100
AcDbLine
 10
6256.0187553361
 20
5314.4692338273
 30
0.0
 11
6256.0187553361
 21
5342.9446328004
 31
0.0
  0
LINE
  5
9F
330
1F
100
AcDbEntity
  8
0
  6
Continuous
 62
     7
370
    25
100
AcDbLine
 10
6232.0187553361
 20
5342.9446328004
 30
0.0
 11
6232.0187553361
 21
5314.4692338273
 31
0.0
  0
ARC
  5
A0
330
1F
100
AcDbEntity
  8
0
  6
Continuous
 62
     7
370
    25
100
AcDbCircle
 10
6244.0187553361
 20
5443.1994545927
 30
0.0
 40
12.0
100
AcDbArc
 50
0.0
 51
180.0
  0
LINE
  5
A1
330
1F
100
AcDbEntity
  8
0
  6
Continuous
 62
     7
370
    25
100
AcDbLine
 10
6232.0187553361
 20
5443.1994545927
 30
0.0
 11
6232.0187553361
 21
5342.9446328004
 31
0.0
  0
LINE
  5
A2
330
1F
100
AcDbEntity
  8
0
  6
Continuous
 62
     7
370
    25
100
AcDbLine
 10
6256.0187553361
 20
5342.9446328004
 30
0.0
 11
6256.0187553361
 21
5443.1994545927
 31
0.0
  0
LINE
  5
A3
330
1F
100
AcDbEntity
  8
0
  6
Continuous
 62
     7
370
    25
100
AcDbLine
 10
6232.0187553361
 20
5314.4692338273
 30
0.0
 11
6232.0187553361
 21
5313.9711364782
 31
0.0
  0
LINE
  5
A4
330
1F
100
AcDbEntity
  8
0
  6
Continuous
 62
     7
370
    25
100
AcDbLine
 10
6232.0187553361
 20
5254.1994545927
 30
0.0
 11
6232.0187553361
 21
5142.1994545927
 31
0.0
  0
LINE
  5
A5
330
1F
100
AcDbEntity
  8
0
  6
Continuous
 62
     7
370
    25
100
AcDbLine
 10
6256.0187553361
 20
5142.1994545927
 30
0.0
 11
6256.0187553361
 21
5254.1994545927
 31
0.0
  0
LINE
  5
A6
330
1F
100
AcDbEntity
  8
0
  6
Continuous
 62
     7
370
    25
100
AcDbLine
 10
6256.0187553361
 20
5313.9711364782
 30
0.0
 11
6256.0187553361
 21
5314.4692338273
 31
0.0
  0
LINE
  5
A7
330
1F
100
AcDbEntity
  8
0
  6
Continuous
 62
     7
370
    25
100
AcDbLine
 10
6319.5588386928
 20
5057.921810657
 30
0.0
 11
6328.7687553361
 21
5057.921810657
 31
0.0
  0
LINE
  5
A8
330
1F
100
AcDbEntity
  8
0
  6
Continuous
 62
     7
370
    25
100
AcDbLine
 10
6307.6851079314
 20
5057.921810657
 30
0.0
 11
6311.9802512433
 21
5057.921810657
 31
0.0
  0
LINE
  5
A9
330
1F
100
AcDbEntity
  8
0
  6
Continuous
 62
     7
370
    25
100
AcDbLine
 10
6310.79174244
 20
5101.421810657
 30
0.0
 11
6299.7687553361
 21
5101.421810657
 31
0.0
  0
LINE
  5
AA
330
1F
100
AcDbEntity
  8
0
  6
Continuous
 62
     7
370
    25
100
AcDbLine
 10
6328.7687553361
 20
5101.421810657
 30
0.0
 11
6320.708774587
 21
5101.421810657
 31
0.0
  0
LINE
  5
AB
330
1F
100
AcDbEntity
  8
0
  6
Continuous
 62
     7
370
    25
100
AcDbLine
 10
6320.7687553361
 20
5101.4082075119
 30
0.0
 11
6320.7687553361
 21
5160.421810657
 31
0.0
  0
LINE
  5
AC
330
1F
100
AcDbEntity
  8
0
  6
Continuous
 62
     7
370
    25
100
AcDbLine
 10
6310.7687553361
 20
5160.421810657
 30
0.0
 11
6310.7687553361
 21
5101.4167173155
 31
0.0
  0
ARC
  5
AD
330
1F
100
AcDbEntity
  8
0
  6
Continuous
 62
     7
370
    25
100
AcDbCircle
 10
6315.7687553361
 20
5148.421810657
 30
0.0
 40
13.0
100
AcDbArc
 50
67.380135052
 51
112.619864948
  0
ARC
  5
AE
330
1F
100
AcDbEntity
  8
0
  6
Continuous
 62
     7
370
    25
100
AcDbCircle
 10
6319.4687553361
 20
5057.771810657
 30
0.0
 40
0.1999999999997538
100
AcDbArc
 50
303.1141427511
 51
48.5903778907
  0
ARC
  5
AF
330
1F
100
AcDbEntity
  8
0
  6
Continuous
 62
     7
370
    25
100
AcDbCircle
 10
6312.0687553361
 20
5057.771810657
 30
0.0
 40
0.2000000000000317
100
AcDbArc
 50
131.4096221093
 51
236.8858572486
  0
ARC
  5
B0
330
1F
100
AcDbEntity
  8
0
  6
Continuous
 62
     7
370
    25
100
AcDbCircle
 10
6315.7687553361
 20
5063.4445379297
 30
0.0
 40
6.972727272726693
100
AcDbArc
 50
236.8858572487
 51
303.1141427513
  0
ARC
  5
B1
330
1F
100
AcDbEntity
  8
0
  6
Continuous
 62
     7
370
    25
100
AcDbCircle
 10
6244.141396713
 20
5336.5730198673
 30
0.0
 40
85.18416921520222
100
AcDbArc
 50
264.9764626245
 51
273.4755414069
  0
LWPOLYLINE
  5
B2
330
1F
100
AcDbEntity
  8
0
  6
Continuous
 62
     7
370
    25
100
AcDbPolyline
 90
        3
 70
   128
 43
0.0
 10
6251.3552637642
 20
5251.7160592272
 10
6250.6846872705
 20
5251.6481267038
 10
6249.3054695159
 20
5251.545524097
  0
ARC
  5
B3
330
1F
100
AcDbEntity
  8
0
  6
Continuous
 62
     7
370
    25
100
AcDbCircle
 10
6244.0187553361
 20
5320.7647973295
 30
0.0
 40
69.30283239924029
100
AcDbArc
 50
264.484858591
 51
275.515141409
  0
ARC
  5
B4
330
1F
100
AcDbEntity
  8
0
  6
Continuous
 62
     7
370
    25
100
AcDbCircle
 10
6244.0214028951
 20
5308.9697823004
 30
0.0
 40
57.38017194471323
100
AcDbArc
 50
264.3756457577
 51
275.5991194756
  0
LINE
  5
B5
330
1F
100
AcDbEntity
  8
0
  6
Continuous
 62
     7
370
    25
100
AcDbLine
 10
6243.8739487197
 20
5252.0256789565
 30
0.0
 11
6243.3485621555
 21
5251.9937856182
 31
0.0
  0
LINE
  5
B6
330
1F
100
AcDbEntity
  8
0
  6
Continuous
 62
     7
370
    25
100
AcDbLine
 10
6243.3485621555
 20
5251.9937856182
 30
0.0
 11
6242.7505857389
 21
5252.0182462531
 31
0.0
  0
LINE
  5
B7
330
1F
100
AcDbEntity
  8
0
  6
Continuous
 62
     7
370
    25
100
AcDbLine
 10
6241.7552929645
 20
5251.6979179516
 30
0.0
 11
6241.777346615
 21
5251.6753002545
 31
0.0
  0
LINE
  5
B8
330
1F
100
AcDbEntity
  8
0
  6
Continuous
 62
     7
370
    25
100
AcDbLine
 10
6240.9713204042
 20
5251.7299868861
 30
0.0
 11
6241.7552929645
 21
5251.6979179516
 31
0.0
  0
LINE
  5
B9
330
1F
100
AcDbEntity
  8
0
  6
Continuous
 62
     7
370
    25
100
AcDbLine
 10
6240.7576058675
 20
5251.7170134481
 30
0.0
 11
6240.9713204042
 21
5251.7299868861
 31
0.0
  0
ARC
  5
BA
330
1F
100
AcDbEntity
  8
0
  6
Continuous
 62
     7
370
    25
100
AcDbCircle
 10
6243.5286222315
 20
5306.9732166823
 30
0.0
 40
55.3256407784277
100
AcDbArc
 50
267.1291069529
 51
268.1860586848
  0
LINE
  5
BB
330
1F
100
AcDbEntity
  8
0
  6
Continuous
 62
     7
370
    25
100
AcDbLine
 10
6240.8539470697
 20
5251.7494149981
 30
0.0
 11
6240.524137843
 21
5251.7293940879
 31
0.0
  0
LINE
  5
BC
330
1F
100
AcDbEntity
  8
0
  6
Continuous
 62
     7
370
    25
100
AcDbLine
 10
6240.7806146278
 20
5251.8246229987
 30
0.0
 11
6240.8539470697
 21
5251.7494149981
 31
0.0
  0
LINE
  5
BD
330
1F
100
AcDbEntity
  8
0
  6
Continuous
 62
     7
370
    25
100
AcDbLine
 10
6239.9966420675
 20
5251.8566919332
 30
0.0
 11
6240.7806146278
 21
5251.8246229987
 31
0.0
  0
LINE
  5
BE
330
1F
100
AcDbEntity
  8
0
  6
Continuous
 62
     7
370
    25
100
AcDbLine
 10
6239.3200438338
 20
5251.8156193633
 30
0.0
 11
6239.9966420675
 21
5251.8566919332
 31
0.0
  0
ARC
  5
BF
330
1F
100
AcDbEntity
  8
0
  6
Continuous
 62
     7
370
    25
100
AcDbCircle
 10
6242.3826688878
 20
5286.1332817224
 30
0.0
 40
34.45405087958446
100
AcDbArc
 50
264.9002397055
 51
266.9078325582
  0
LINE
  5
C0
330
1F
100
AcDbEntity
  8
0
  6
Continuous
 62
     7
370
    25
100
AcDbLine
 10
6239.1686286147
 20
5251.8329809791
 30
0.0
 11
6239.115656144
 21
5251.8351478543
 31
0.0
  0
LINE
  5
C1
330
1F
100
AcDbEntity
  8
0
  6
Continuous
 62
     7
370
    25
100
AcDbLine
 10
6239.879268733
 20
5251.8761200451
 30
0.0
 11
6239.1686286147
 21
5251.8329809791
 31
0.0
  0
LINE
  5
C2
330
1F
100
AcDbEntity
  8
0
  6
Continuous
 62
     7
370
    25
100
AcDbLine
 10
6239.8180513174
 20
5251.9389031641
 30
0.0
 11
6239.879268733
 21
5251.8761200451
 31
0.0
  0
ARC
  5
C3
330
1F
100
AcDbEntity
  8
0
  6
Continuous
 62
     7
370
    25
100
AcDbCircle
 10
6240.8699344778
 20
5269.4861886959
 30
0.0
 40
17.73800257254589
100
AcDbArc
 50
262.9791280359
 51
264.3242017365
  0
LINE
  5
C4
330
1F
100
AcDbEntity
  8
0
  6
Continuous
 62
     7
370
    25
100
AcDbLine
 10
6246.9838048232
 20
5251.7393632579
 30
0.0
 11
6247.0178385279
 21
5251.7044591033
 31
0.0
  0
LINE
  5
C5
330
1F
100
AcDbEntity
  8
0
  6
Continuous
 62
     7
370
    25
100
AcDbLine
 10
6246.1998322629
 20
5251.7714321924
 30
0.0
 11
6246.9838048232
 21
5251.7393632579
 31
0.0
  0
LINE
  5
C6
330
1F
100
AcDbEntity
  8
0
  6
Continuous
 62
     7
370
    25
100
AcDbLine
 10
6245.4891921446
 20
5251.7282931263
 30
0.0
 11
6246.1998322629
 21
5251.7714321924
 31
0.0
  0
LINE
  5
C7
330
1F
100
AcDbEntity
  8
0
  6
Continuous
 62
     7
370
    25
100
AcDbLine
 10
6245.5590117332
 20
5251.6566878242
 30
0.0
 11
6245.4891921446
 21
5251.7282931263
 31
0.0
  0
ARC
  5
C8
330
1F
100
AcDbEntity
  8
0
  6
Continuous
 62
     7
370
    25
100
AcDbCircle
 10
6244.2922611113
 20
5312.6389068295
 30
0.0
 40
60.99537434878836
100
AcDbArc
 50
271.1900030696
 51
272.5611138743
  0
LINE
  5
C9
330
1F
100
AcDbEntity
  8
0
  6
Continuous
 62
     7
370
    25
100
AcDbLine
 10
6247.9461795708
 20
5251.7816475001
 30
0.0
 11
6248.1819477581
 21
5251.7720032409
 31
0.0
  0
LINE
  5
CA
330
1F
100
AcDbEntity
  8
0
  6
Continuous
 62
     7
370
    25
100
AcDbLine
 10
6247.2355394525
 20
5251.7385084341
 30
0.0
 11
6247.9461795708
 21
5251.7816475001
 31
0.0
  0
LINE
  5
CB
330
1F
100
AcDbEntity
  8
0
  6
Continuous
 62
     7
370
    25
100
AcDbLine
 10
6247.2575931031
 20
5251.7158907369
 30
0.0
 11
6247.2355394525
 21
5251.7385084341
 31
0.0
  0
ARC
  5
CC
330
1F
100
AcDbEntity
  8
0
  6
Continuous
 62
     7
370
    25
100
AcDbCircle
 10
6245.2165209928
 20
5292.9805716726
 30
0.0
 40
41.31512880399274
100
AcDbArc
 50
272.8317094189
 51
274.1159901631
  0
LINE
  5
CD
330
1F
100
AcDbEntity
  8
0
  6
Continuous
 62
     7
370
    25
100
AcDbLine
 10
6243.4963752399
 20
5251.7135329509
 30
0.0
 11
6243.5661948284
 21
5251.6419276488
 31
0.0
  0
LINE
  5
CE
330
1F
100
AcDbEntity
  8
0
  6
Continuous
 62
     7
370
    25
100
AcDbLine
 10
6242.7124026797
 20
5251.7456018854
 30
0.0
 11
6243.4963752399
 21
5251.7135329509
 31
0.0
  0
LINE
  5
CF
330
1F
100
AcDbEntity
  8
0
  6
Continuous
 62
     7
370
    25
100
AcDbLine
 10
6242.0017625613
 20
5251.7024628193
 30
0.0
 11
6242.7124026797
 21
5251.7456018854
 31
0.0
  0
LINE
  5
D0
330
1F
100
AcDbEntity
  8
0
  6
Continuous
 62
     7
370
    25
100
AcDbLine
 10
6242.0357962661
 20
5251.6675586648
 30
0.0
 11
6242.0017625613
 21
5251.7024628193
 31
0.0
  0
ARC
  5
D1
330
1F
100
AcDbEntity
  8
0
  6
Continuous
 62
     7
370
    25
100
AcDbCircle
 10
6243.9791156797
 20
5321.9989448168
 30
0.0
 40
70.35822886065998
100
AcDbArc
 50
268.4172688197
 51
269.6637385811
  0
LINE
  5
D2
330
1F
100
AcDbEntity
  8
0
  6
Continuous
 62
     7
370
    25
100
AcDbLine
 10
6245.3107899572
 20
5251.6539399496
 30
0.0
 11
6245.2627725077
 21
5251.6510250734
 31
0.0
  0
LINE
  5
D3
330
1F
100
AcDbEntity
  8
0
  6
Continuous
 62
     7
370
    25
100
AcDbLine
 10
6245.2374575153
 20
5251.7291479501
 30
0.0
 11
6245.3107899572
 21
5251.6539399496
 31
0.0
  0
LINE
  5
D4
330
1F
100
AcDbEntity
  8
0
  6
Continuous
 62
     7
370
    25
100
AcDbLine
 10
6244.4534849551
 20
5251.7612168846
 30
0.0
 11
6245.2374575153
 21
5251.7291479501
 31
0.0
  0
LINE
  5
D5
330
1F
100
AcDbEntity
  8
0
  6
Continuous
 62
     7
370
    25
100
AcDbLine
 10
6243.7428448368
 20
5251.7180778186
 30
0.0
 11
6244.4534849551
 21
5251.7612168846
 31
0.0
  0
LINE
  5
D6
330
1F
100
AcDbEntity
  8
0
  6
Continuous
 62
     7
370
    25
100
AcDbLine
 10
6243.8161772787
 20
5251.642869818
 30
0.0
 11
6243.7428448368
 21
5251.7180778186
 31
0.0
  0
LINE
  5
D7
330
1F
100
AcDbEntity
  8
0
  6
Continuous
 62
     7
370
    25
100
AcDbLine
 10
6243.8691497493
 20
5251.6407029428
 30
0.0
 11
6243.8161772787
 21
5251.642869818
 31
0.0
  0
ARC
  5
D8
330
1F
100
AcDbEntity
  8
0
  6
Continuous
 62
     7
370
    25
100
AcDbCircle
 10
6244.0213471945
 20
5325.1758745224
 30
0.0
 40
73.53532908275685
100
AcDbArc
 50
269.8814137695
 51
270.9673147721
  0
LINE
  5
D9
330
1F
100
AcDbEntity
  8
0
  6
Continuous
 62
     7
370
    25
100
AcDbLine
 10
6247.9509217263
 20
5251.8777312347
 30
0.0
 11
6248.637485871
 21
5251.9194087804
 31
0.0
  0
LINE
  5
DA
330
1F
100
AcDbEntity
  8
0
  6
Continuous
 62
     7
370
    25
100
AcDbLine
 10
6248.0242541682
 20
5251.8025232342
 30
0.0
 11
6247.9509217263
 21
5251.8777312347
 31
0.0
  0
LINE
  5
DB
330
1F
100
AcDbEntity
  8
0
  6
Continuous
 62
     7
370
    25
100
AcDbLine
 10
6248.3880970996
 20
5251.7876399899
 30
0.0
 11
6248.0242541682
 21
5251.8025232342
 31
0.0
  0
ARC
  5
DC
330
1F
100
AcDbEntity
  8
0
  6
Continuous
 62
     7
370
    25
100
AcDbCircle
 10
6246.7891751182
 20
5272.7819643382
 30
0.0
 40
21.05512304269874
100
AcDbArc
 50
274.3552232912
 51
277.1448661681
  0
LINE
  5
DD
330
1F
100
AcDbEntity
  8
0
  6
Continuous
 62
     7
370
    25
100
AcDbLine
 10
6243.3156766513
 20
5251.8988531066
 30
0.0
 11
6242.605036533
 21
5251.8557140405
 31
0.0
  0
LINE
  5
DE
330
1F
100
AcDbEntity
  8
0
  6
Continuous
 62
     7
370
    25
100
AcDbLine
 10
6243.2423442094
 20
5251.9740611071
 30
0.0
 11
6243.3156766513
 21
5251.8988531066
 31
0.0
  0
LINE
  5
DF
330
1F
100
AcDbEntity
  8
0
  6
Continuous
 62
     7
370
    25
100
AcDbLine
 10
6242.4583716492
 20
5252.0061300416
 30
0.0
 11
6243.2423442094
 21
5251.9740611071
 31
0.0
  0
LINE
  5
E0
330
1F
100
AcDbEntity
  8
0
  6
Continuous
 62
     7
370
    25
100
AcDbLine
 10
6241.7477315309
 20
5251.9629909755
 30
0.0
 11
6242.4583716492
 21
5252.0061300416
 31
0.0
  0
LINE
  5
E1
330
1F
100
AcDbEntity
  8
0
  6
Continuous
 62
     7
370
    25
100
AcDbLine
 10
6241.8210639728
 20
5251.887782975
 30
0.0
 11
6241.7477315309
 21
5251.9629909755
 31
0.0
  0
LINE
  5
E2
330
1F
100
AcDbEntity
  8
0
  6
Continuous
 62
     7
370
    25
100
AcDbLine
 10
6242.605036533
 20
5251.8557140405
 30
0.0
 11
6241.8210639728
 21
5251.887782975
 31
0.0
  0
LINE
  5
E3
330
1F
100
AcDbEntity
  8
0
  6
Continuous
 62
     7
370
    25
100
AcDbLine
 10
6241.6303581963
 20
5251.9824190875
 30
0.0
 11
6241.3801442049
 21
5251.9926542622
 31
0.0
  0
LINE
  5
E4
330
1F
100
AcDbEntity
  8
0
  6
Continuous
 62
     7
370
    25
100
AcDbLine
 10
6242.0407762561
 20
5252.0073333181
 30
0.0
 11
6241.6303581963
 21
5251.9824190875
 31
0.0
  0
LINE
  5
E5
330
1F
100
AcDbEntity
  8
0
  6
Continuous
 62
     7
370
    25
100
AcDbLine
 10
6245.0922769472
 20
5252.0067007717
 30
0.0
 11
6244.675078633
 21
5252.0237665545
 31
0.0
  0
LINE
  5
E6
330
1F
100
AcDbEntity
  8
0
  6
Continuous
 62
     7
370
    25
100
AcDbLine
 10
6245.2831995429
 20
5252.0182906359
 30
0.0
 11
6245.0922769472
 21
5252.0067007717
 31
0.0
  0
LINE
  5
E7
330
1F
100
AcDbEntity
  8
0
  6
Continuous
 62
     7
370
    25
100
AcDbLine
 10
6243.5621462482
 20
5251.9033979742
 30
0.0
 11
6243.4888138063
 21
5251.9786059748
 31
0.0
  0
LINE
  5
E8
330
1F
100
AcDbEntity
  8
0
  6
Continuous
 62
     7
370
    25
100
AcDbLine
 10
6244.3461188084
 20
5251.8713290397
 30
0.0
 11
6243.5621462482
 21
5251.9033979742
 31
0.0
  0
LINE
  5
E9
330
1F
100
AcDbEntity
  8
0
  6
Continuous
 62
     7
370
    25
100
AcDbLine
 10
6245.0567589268
 20
5251.9144681058
 30
0.0
 11
6244.3461188084
 21
5251.8713290397
 31
0.0
  0
LINE
  5
EA
330
1F
100
AcDbEntity
  8
0
  6
Continuous
 62
     7
370
    25
100
AcDbLine
 10
6244.9834264849
 20
5251.9896761064
 30
0.0
 11
6245.0567589268
 21
5251.9144681058
 31
0.0
  0
LINE
  5
EB
330
1F
100
AcDbEntity
  8
0
  6
Continuous
 62
     7
370
    25
100
AcDbLine
 10
6244.1994539246
 20
5252.0217450409
 30
0.0
 11
6244.9834264849
 21
5251.9896761064
 31
0.0
  0
LINE
  5
EC
330
1F
100
AcDbEntity
  8
0
  6
Continuous
 62
     7
370
    25
100
AcDbLine
 10
6243.4888138063
 20
5251.9786059748
 30
0.0
 11
6244.1994539246
 21
5252.0217450409
 31
0.0
  0
LINE
  5
ED
330
1F
100
AcDbEntity
  8
0
  6
Continuous
 62
     7
370
    25
100
AcDbLine
 10
6248.3927892394
 20
5251.931107793
 30
0.0
 11
6247.8080375593
 21
5251.8956107239
 31
0.0
  0
LINE
  5
EE
330
1F
100
AcDbEntity
  8
0
  6
Continuous
 62
     7
370
    25
100
AcDbLine
 10
6247.024064999
 20
5251.9276796584
 30
0.0
 11
6246.9690064625
 21
5251.9841463782
 31
0.0
  0
LINE
  5
EF
330
1F
100
AcDbEntity
  8
0
  6
Continuous
 62
     7
370
    25
100
AcDbLine
 10
6247.8080375593
 20
5251.8956107239
 30
0.0
 11
6247.024064999
 21
5251.9276796584
 31
0.0
  0
LINE
  5
F0
330
1F
100
AcDbEntity
  8
0
  6
Continuous
 62
     7
370
    25
100
AcDbLine
 10
6247.7299629619
 20
5251.8747349899
 30
0.0
 11
6247.8032954038
 21
5251.7995269893
 31
0.0
  0
LINE
  5
F1
330
1F
100
AcDbEntity
  8
0
  6
Continuous
 62
     7
370
    25
100
AcDbLine
 10
6246.9459904017
 20
5251.9068039244
 30
0.0
 11
6247.7299629619
 21
5251.8747349899
 31
0.0
  0
LINE
  5
F2
330
1F
100
AcDbEntity
  8
0
  6
Continuous
 62
     7
370
    25
100
AcDbLine
 10
6246.2353502833
 20
5251.8636648583
 30
0.0
 11
6246.9459904017
 21
5251.9068039244
 31
0.0
  0
LINE
  5
F3
330
1F
100
AcDbEntity
  8
0
  6
Continuous
 62
     7
370
    25
100
AcDbLine
 10
6246.3086827252
 20
5251.7884568577
 30
0.0
 11
6246.2353502833
 21
5251.8636648583
 31
0.0
  0
LINE
  5
F4
330
1F
100
AcDbEntity
  8
0
  6
Continuous
 62
     7
370
    25
100
AcDbLine
 10
6247.0926552855
 20
5251.7563879232
 30
0.0
 11
6246.3086827252
 21
5251.7884568577
 31
0.0
  0
LINE
  5
F5
330
1F
100
AcDbEntity
  8
0
  6
Continuous
 62
     7
370
    25
100
AcDbLine
 10
6247.8032954038
 20
5251.7995269893
 30
0.0
 11
6247.0926552855
 21
5251.7563879232
 31
0.0
  0
LINE
  5
F6
330
1F
100
AcDbEntity
  8
0
  6
Continuous
 62
     7
370
    25
100
AcDbLine
 10
6241.0283693944
 20
5251.9829744228
 30
0.0
 11
6241.5241402503
 21
5251.9626945764
 31
0.0
  0
LINE
  5
F7
330
1F
100
AcDbEntity
  8
0
  6
Continuous
 62
     7
370
    25
100
AcDbLine
 10
6240.1028600136
 20
5251.8764164443
 30
0.0
 11
6240.0330348875
 21
5251.9480274256
 31
0.0
  0
LINE
  5
F8
330
1F
100
AcDbEntity
  8
0
  6
Continuous
 62
     7
370
    25
100
AcDbLine
 10
6240.8868325738
 20
5251.8443475098
 30
0.0
 11
6240.1028600136
 21
5251.8764164443
 31
0.0
  0
LINE
  5
F9
330
1F
100
AcDbEntity
  8
0
  6
Continuous
 62
     7
370
    25
100
AcDbLine
 10
6241.5974726922
 20
5251.8874865758
 30
0.0
 11
6240.8868325738
 21
5251.8443475098
 31
0.0
  0
LINE
  5
FA
330
1F
100
AcDbEntity
  8
0
  6
Continuous
 62
     7
370
    25
100
AcDbLine
 10
6241.5241402503
 20
5251.9626945764
 30
0.0
 11
6241.5974726922
 21
5251.8874865758
 31
0.0
  0
LINE
  5
FB
330
1F
100
AcDbEntity
  8
0
  6
Continuous
 62
     7
370
    25
100
AcDbLine
 10
6241.7148460267
 20
5251.8680584639
 30
0.0
 11
6242.4988185869
 21
5251.8359895294
 31
0.0
  0
LINE
  5
FC
330
1F
100
AcDbEntity
  8
0
  6
Continuous
 62
     7
370
    25
100
AcDbLine
 10
6241.0042059084
 20
5251.8249193978
 30
0.0
 11
6241.7148460267
 21
5251.8680584639
 31
0.0
  0
LINE
  5
FD
330
1F
100
AcDbEntity
  8
0
  6
Continuous
 62
     7
370
    25
100
AcDbLine
 10
6241.0775383503
 20
5251.7497113972
 30
0.0
 11
6241.0042059084
 21
5251.8249193978
 31
0.0
  0
LINE
  5
FE
330
1F
100
AcDbEntity
  8
0
  6
Continuous
 62
     7
370
    25
100
AcDbLine
 10
6241.8615109105
 20
5251.7176424627
 30
0.0
 11
6241.0775383503
 21
5251.7497113972
 31
0.0
  0
LINE
  5
FF
330
1F
100
AcDbEntity
  8
0
  6
Continuous
 62
     7
370
    25
100
AcDbLine
 10
6242.5721510289
 20
5251.7607815288
 30
0.0
 11
6241.8615109105
 21
5251.7176424627
 31
0.0
  0
LINE
  5
100
330
1F
100
AcDbEntity
  8
0
  6
Continuous
 62
     7
370
    25
100
AcDbLine
 10
6242.4988185869
 20
5251.8359895294
 30
0.0
 11
6242.5721510289
 21
5251.7607815288
 31
0.0
  0
LINE
  5
101
330
1F
100
AcDbEntity
  8
0
  6
Continuous
 62
     7
370
    25
100
AcDbLine
 10
6244.4890029755
 20
5251.8534495506
 30
0.0
 11
6245.1996430938
 21
5251.8965886166
 31
0.0
  0
LINE
  5
102
330
1F
100
AcDbEntity
  8
0
  6
Continuous
 62
     7
370
    25
100
AcDbLine
 10
6244.5623354174
 20
5251.77824155
 30
0.0
 11
6244.4890029755
 21
5251.8534495506
 31
0.0
  0
LINE
  5
103
330
1F
100
AcDbEntity
  8
0
  6
Continuous
 62
     7
370
    25
100
AcDbLine
 10
6245.3463079776
 20
5251.7461726155
 30
0.0
 11
6244.5623354174
 21
5251.77824155
 31
0.0
  0
LINE
  5
104
330
1F
100
AcDbEntity
  8
0
  6
Continuous
 62
     7
370
    25
100
AcDbLine
 10
6246.0569480959
 20
5251.7893116816
 30
0.0
 11
6245.3463079776
 21
5251.7461726155
 31
0.0
  0
LINE
  5
105
330
1F
100
AcDbEntity
  8
0
  6
Continuous
 62
     7
370
    25
100
AcDbLine
 10
6245.983615654
 20
5251.8645196821
 30
0.0
 11
6246.0569480959
 21
5251.7893116816
 31
0.0
  0
LINE
  5
106
330
1F
100
AcDbEntity
  8
0
  6
Continuous
 62
     7
370
    25
100
AcDbLine
 10
6245.1996430938
 20
5251.8965886166
 30
0.0
 11
6245.983615654
 21
5251.8645196821
 31
0.0
  0
LINE
  5
107
330
1F
100
AcDbEntity
  8
0
  6
Continuous
 62
     7
370
    25
100
AcDbLine
 10
6243.602593186
 20
5251.733257462
 30
0.0
 11
6242.8186206257
 21
5251.7653263965
 31
0.0
  0
LINE
  5
108
330
1F
100
AcDbEntity
  8
0
  6
Continuous
 62
     7
370
    25
100
AcDbLine
 10
6244.3132333043
 20
5251.7763965281
 30
0.0
 11
6243.602593186
 21
5251.733257462
 31
0.0
  0
LINE
  5
109
330
1F
100
AcDbEntity
  8
0
  6
Continuous
 62
     7
370
    25
100
AcDbLine
 10
6244.2399008624
 20
5251.8516045286
 30
0.0
 11
6244.3132333043
 21
5251.7763965281
 31
0.0
  0
LINE
  5
10A
330
1F
100
AcDbEntity
  8
0
  6
Continuous
 62
     7
370
    25
100
AcDbLine
 10
6243.4559283021
 20
5251.8836734631
 30
0.0
 11
6244.2399008624
 21
5251.8516045286
 31
0.0
  0
LINE
  5
10B
330
1F
100
AcDbEntity
  8
0
  6
Continuous
 62
     7
370
    25
100
AcDbLine
 10
6242.7452881838
 20
5251.8405343971
 30
0.0
 11
6243.4559283021
 21
5251.8836734631
 31
0.0
  0
LINE
  5
10C
330
1F
100
AcDbEntity
  8
0
  6
Continuous
 62
     7
370
    25
100
AcDbLine
 10
6242.8186206257
 20
5251.7653263965
 30
0.0
 11
6242.7452881838
 21
5251.8405343971
 31
0.0
  0
LINE
  5
10D
330
1F
100
AcDbEntity
  8
0
  6
Continuous
 62
     7
370
    25
100
AcDbLine
 10
6245.0922769472
 20
5252.0203876162
 30
0.0
 11
6245.0922769472
 21
5252.0067007717
 31
0.0
  0
LINE
  5
10E
330
1F
100
AcDbEntity
  8
0
  6
Continuous
 62
     7
370
    25
100
AcDbLine
 10
6243.3485621555
 20
5252.0236805868
 30
0.0
 11
6243.3485621555
 21
5251.9937856182
 31
0.0
  0
LINE
  5
10F
330
1F
100
AcDbEntity
  8
0
  6
Continuous
 62
     7
370
    25
100
AcDbLine
 10
6241.6303581963
 20
5251.9987413436
 30
0.0
 11
6241.6303581963
 21
5251.9824190875
 31
0.0
  0
LINE
  5
110
330
1F
100
AcDbEntity
  8
0
  6
Continuous
 62
     7
370
    25
100
AcDbLine
 10
6247.024064999
 20
5251.982534145
 30
0.0
 11
6247.024064999
 21
5251.9276796584
 31
0.0
  0
LINE
  5
111
330
1F
100
AcDbEntity
  8
0
  6
Continuous
 62
     7
370
    25
100
AcDbLine
 10
6243.5621462482
 20
5251.9830575854
 30
0.0
 11
6243.5621462482
 21
5251.9033979742
 31
0.0
  0
LINE
  5
112
330
1F
100
AcDbEntity
  8
0
  6
Continuous
 62
     7
370
    25
100
AcDbLine
 10
6241.8210639728
 20
5251.9674425861
 30
0.0
 11
6241.8210639728
 21
5251.887782975
 31
0.0
  0
LINE
  5
113
330
1F
100
AcDbEntity
  8
0
  6
Continuous
 62
     7
370
    25
100
AcDbLine
 10
6240.1028600136
 20
5251.9508646568
 30
0.0
 11
6240.1028600136
 21
5251.8764164443
 31
0.0
  0
LINE
  5
114
330
1F
100
AcDbEntity
  8
0
  6
Continuous
 62
     7
370
    25
100
AcDbLine
 10
6247.8080375593
 20
5251.9558550307
 30
0.0
 11
6247.8080375593
 21
5251.8956107239
 31
0.0
  0
LINE
  5
115
330
1F
100
AcDbEntity
  8
0
  6
Continuous
 62
     7
370
    25
100
AcDbLine
 10
6239.115656144
 20
5251.9047425313
 30
0.0
 11
6239.115656144
 21
5251.8351478543
 31
0.0
  0
LINE
  5
116
330
1F
100
AcDbEntity
  8
0
  6
Continuous
 62
     7
370
    25
100
AcDbLine
 10
6244.3461188084
 20
5252.0157456133
 30
0.0
 11
6244.3461188084
 21
5251.8713290397
 31
0.0
  0
LINE
  5
117
330
1F
100
AcDbEntity
  8
0
  6
Continuous
 62
     7
370
    25
100
AcDbLine
 10
6242.605036533
 20
5252.0001306141
 30
0.0
 11
6242.605036533
 21
5251.8557140405
 31
0.0
  0
LINE
  5
118
330
1F
100
AcDbEntity
  8
0
  6
Continuous
 62
     7
370
    25
100
AcDbLine
 10
6240.8868325738
 20
5251.9787000271
 30
0.0
 11
6240.8868325738
 21
5251.8443475098
 31
0.0
  0
LINE
  5
119
330
1F
100
AcDbEntity
  8
0
  6
Continuous
 62
     7
370
    25
100
AcDbLine
 10
6248.3880970996
 20
5251.9042697552
 30
0.0
 11
6248.3880970996
 21
5251.7876399899
 31
0.0
  0
LINE
  5
11A
330
1F
100
AcDbEntity
  8
0
  6
Continuous
 62
     7
370
    25
100
AcDbLine
 10
6248.0242541682
 20
5251.8821828453
 30
0.0
 11
6248.0242541682
 21
5251.8025232342
 31
0.0
  0
LINE
  5
11B
330
1F
100
AcDbEntity
  8
0
  6
Continuous
 62
     7
370
    25
100
AcDbLine
 10
6239.1686286147
 20
5251.907564803
 30
0.0
 11
6239.1686286147
 21
5251.8329809791
 31
0.0
  0
LINE
  5
11C
330
1F
100
AcDbEntity
  8
0
  6
Continuous
 62
     7
370
    25
100
AcDbLine
 10
6246.3086827252
 20
5251.8681164689
 30
0.0
 11
6246.3086827252
 21
5251.7884568577
 31
0.0
  0
LINE
  5
11D
330
1F
100
AcDbEntity
  8
0
  6
Continuous
 62
     7
370
    25
100
AcDbLine
 10
6244.5623354174
 20
5251.8579011611
 30
0.0
 11
6244.5623354174
 21
5251.77824155
 31
0.0
  0
LINE
  5
11E
330
1F
100
AcDbEntity
  8
0
  6
Continuous
 62
     7
370
    25
100
AcDbLine
 10
6242.8186206257
 20
5251.8449860076
 30
0.0
 11
6242.8186206257
 21
5251.7653263965
 31
0.0
  0
LINE
  5
11F
330
1F
100
AcDbEntity
  8
0
  6
Continuous
 62
     7
370
    25
100
AcDbLine
 10
6240.524137843
 20
5251.8351143572
 30
0.0
 11
6240.524137843
 21
5251.7293940879
 31
0.0
  0
LINE
  5
120
330
1F
100
AcDbEntity
  8
0
  6
Continuous
 62
     7
370
    25
100
AcDbLine
 10
6241.0775383503
 20
5251.8293710084
 30
0.0
 11
6241.0775383503
 21
5251.7497113972
 31
0.0
  0
LINE
  5
121
330
1F
100
AcDbEntity
  8
0
  6
Continuous
 62
     7
370
    25
100
AcDbLine
 10
6247.0926552855
 20
5251.9008044968
 30
0.0
 11
6247.0926552855
 21
5251.7563879232
 31
0.0
  0
LINE
  5
122
330
1F
100
AcDbEntity
  8
0
  6
Continuous
 62
     7
370
    25
100
AcDbLine
 10
6245.3463079776
 20
5251.8905891891
 30
0.0
 11
6245.3463079776
 21
5251.7461726155
 31
0.0
  0
LINE
  5
123
330
1F
100
AcDbEntity
  8
0
  6
Continuous
 62
     7
370
    25
100
AcDbLine
 10
6243.602593186
 20
5251.8776740356
 30
0.0
 11
6243.602593186
 21
5251.733257462
 31
0.0
  0
LINE
  5
124
330
1F
100
AcDbEntity
  8
0
  6
Continuous
 62
     7
370
    25
100
AcDbLine
 10
6247.2575931031
 20
5251.7398471903
 30
0.0
 11
6247.2575931031
 21
5251.7158907369
 31
0.0
  0
LINE
  5
125
330
1F
100
AcDbEntity
  8
0
  6
Continuous
 62
     7
370
    25
100
AcDbLine
 10
6241.8615109105
 20
5251.8620590364
 30
0.0
 11
6241.8615109105
 21
5251.7176424627
 31
0.0
  0
LINE
  5
126
330
1F
100
AcDbEntity
  8
0
  6
Continuous
 62
     7
370
    25
100
AcDbLine
 10
6245.5590117332
 20
5251.7325314908
 30
0.0
 11
6245.5590117332
 21
5251.6566878242
 31
0.0
  0
LINE
  5
127
330
1F
100
AcDbEntity
  8
0
  6
Continuous
 62
     7
370
    25
100
AcDbLine
 10
6242.0357962661
 20
5251.704528819
 30
0.0
 11
6242.0357962661
 21
5251.6675586648
 31
0.0
  0
LINE
  5
128
330
1F
100
AcDbEntity
  8
0
  6
Continuous
 62
     7
370
    25
100
AcDbLine
 10
6243.8161772787
 20
5251.7225294291
 30
0.0
 11
6243.8161772787
 21
5251.642869818
 31
0.0
  0
LINE
  5
129
330
1F
100
AcDbEntity
  8
0
  6
Continuous
 62
     7
370
    25
100
AcDbLine
 10
6243.8691497493
 20
5251.7257450974
 30
0.0
 11
6243.8691497493
 21
5251.6407029428
 31
0.0
  0
LINE
  5
12A
330
1F
100
AcDbEntity
  8
0
  6
Continuous
 62
     7
370
    25
100
AcDbLine
 10
6245.2627725077
 20
5251.7031854987
 30
0.0
 11
6245.2627725077
 21
5251.6510250734
 31
0.0
  0
LINE
  5
12B
330
1F
100
AcDbEntity
  8
0
  6
Continuous
 62
     7
370
    25
100
AcDbLine
 10
6222.512215378
 20
5001.6994545927
 30
0.0
 11
6222.512215378
 21
5018.6994545927
 31
0.0
  0
LINE
  5
12C
330
1F
100
AcDbEntity
  8
0
  6
Continuous
 62
     7
370
    25
100
AcDbLine
 10
6265.5687553361
 20
5028.6994545927
 30
0.0
 11
6222.4687553361
 21
5028.6994545927
 31
0.0
  0
LINE
  5
12D
330
1F
100
AcDbEntity
  8
0
  6
Continuous
 62
     7
370
    25
100
AcDbLine
 10
6265.7687553361
 20
5028.4994545927
 30
0.0
 11
6222.2687553361
 21
5028.4994545927
 31
0.0
  0
SPLINE
  5
12E
330
1F
100
AcDbEntity
  8
0
  6
Continuous
 62
     7
370
    25
100
AcDbSpline
210
0.0
220
0.0
230
1.0
 70
     8
 71
     3
 72
    13
 73
     9
 74
     0
 42
0.00000001
 43
0.00000001
 40
0.0
 40
0.0
 40
0.0
 40
0.0
 40
0.0641919368507693
 40
0.2718913486212066
 40
0.4815507547682121
 40
0.6970022415518332
 40
0.9134724563706037
 40
1.0
 40
1.0
 40
1.0
 40
1.0
 10
6222.285022758916
 20
5024.134494619007
 30
0.0
 10
6222.280335073475
 20
5024.153237899447
 30
0.0
 10
6222.260479914419
 20
5024.2326269325
 30
0.0
 10
6222.379131525382
 20
5023.763255460608
 30
0.0
 10
6222.597349579304
 20
5022.769500365871
 30
0.0
 10
6222.840403286353
 20
5021.270216367395
 30
0.0
 10
6222.963465045401
 20
5019.821707025055
 30
0.0
 10
6222.972939258681
 20
5018.948747118221
 30
0.0
 10
6222.975644824582
 20
5018.699454592719
 30
0.0
  0
SPLINE
  5
12F
330
1F
100
AcDbEntity
  8
0
  6
Continuous
 62
     7
370
    25
100
AcDbSpline
210
0.0
220
0.0
230
1.0
 70
     8
 71
     3
 72
    12
 73
     8
 74
     0
 42
0.00000001
 43
0.00000001
 40
0.0
 40
0.0
 40
0.0
 40
0.0
 40
0.2101294989775839
 40
0.420093414384166
 40
0.6343255442241247
 40
0.8515578331413237
 40
1.0
 40
1.0
 40
1.0
 40
1.0
 10
6222.975644824582
 20
5001.699454592719
 30
0.0
 10
6222.959898245459
 20
5001.092414237211
 30
0.0
 10
6222.928417495632
 20
4999.878811878404
 30
0.0
 10
6222.708748826618
 20
4998.250716693736
 30
0.0
 10
6222.467465828885
 20
4997.007867809813
 30
0.0
 10
6222.288659904214
 20
4996.277275533773
 30
0.0
 10
6222.286072920894
 20
4996.268127945412
 30
0.0
 10
6222.285022758916
 20
4996.264414566431
 30
0.0
  0
LINE
  5
130
330
1F
100
AcDbEntity
  8
0
  6
Continuous
 62
     7
370
    25
100
AcDbLine
 10
6222.9756448246
 20
5018.6994545927
 30
0.0
 11
6222.9756448246
 21
5001.6994545927
 31
0.0
  0
LINE
  5
131
330
1F
100
AcDbEntity
  8
0
  6
Continuous
 62
     7
370
    25
100
AcDbLine
 10
6244.0187553361
 20
4972.1994545927
 30
0.0
 11
6268.7687553361
 21
4972.1994545927
 31
0.0
  0
LINE
  5
132
330
1F
100
AcDbEntity
  8
0
  6
Continuous
 62
     7
370
    25
100
AcDbLine
 10
6219.2687553361
 20
4972.1994545927
 30
0.0
 11
6244.0187553361
 21
4972.1994545927
 31
0.0
  0
LINE
  5
133
330
1F
100
AcDbEntity
  8
0
  6
Continuous
 62
     7
370
    25
100
AcDbLine
 10
6244.0187553361
 20
4978.1994545927
 30
0.0
 11
6268.7687553361
 21
4978.1994545927
 31
0.0
  0
LINE
  5
134
330
1F
100
AcDbEntity
  8
0
  6
Continuous
 62
     7
370
    25
100
AcDbLine
 10
6219.2687553361
 20
4978.1994545927
 30
0.0
 11
6244.0187553361
 21
4978.1994545927
 31
0.0
  0
LINE
  5
135
330
1F
100
AcDbEntity
  8
0
  6
Continuous
 62
     7
370
    25
100
AcDbLine
 10
6265.5187553361
 20
5029.1994545927
 30
0.0
 11
6222.5187553361
 21
5029.1994545927
 31
0.0
  0
LINE
  5
136
330
1F
100
AcDbEntity
  8
0
  6
Continuous
 62
     7
370
    25
100
AcDbLine
 10
6265.5187553361
 20
5032.1994545927
 30
0.0
 11
6222.5187553361
 21
5032.1994545927
 31
0.0
  0
LINE
  5
137
330
1F
100
AcDbEntity
  8
0
  6
Continuous
 62
     7
370
    25
100
AcDbLine
 10
6244.0187553361
 20
5079.671810657
 30
0.0
 11
6265.7687553361
 21
5057.921810657
 31
0.0
  0
LINE
  5
138
330
1F
100
AcDbEntity
  8
0
  6
Continuous
 62
     7
370
    25
100
AcDbLine
 10
6265.7687553361
 20
5101.421810657
 30
0.0
 11
6244.0187553361
 21
5079.671810657
 31
0.0
  0
LINE
  5
139
330
1F
100
AcDbEntity
  8
0
  6
Continuous
 62
     7
370
    25
100
AcDbLine
 10
6294.7687553361
 20
5079.671810657
 30
0.0
 11
6294.7687553361
 21
5101.421810657
 31
0.0
  0
LINE
  5
13A
330
1F
100
AcDbEntity
  8
0
  6
Continuous
 62
     7
370
    25
100
AcDbLine
 10
6294.7687553361
 20
5057.921810657
 30
0.0
 11
6294.7687553361
 21
5079.671810657
 31
0.0
  0
LINE
  5
13B
330
1F
100
AcDbEntity
  8
0
  6
Continuous
 62
     7
370
    25
100
AcDbLine
 10
6265.7687553361
 20
5032.6994545927
 30
0.0
 11
6222.2687553361
 21
5032.6994545927
 31
0.0
  0
LINE
  5
13C
330
1F
100
AcDbEntity
  8
0
  6
Continuous
 62
     7
370
    25
100
AcDbLine
 10
6265.7687553361
 20
5141.6994545927
 30
0.0
 11
6222.2687553361
 21
5141.6994545927
 31
0.0
  0
LINE
  5
13D
330
1F
100
AcDbEntity
  8
0
  6
Continuous
 62
     7
370
    25
100
AcDbLine
 10
6296.7687553361
 20
5079.671810657
 30
0.0
 11
6296.7687553361
 21
5101.321810657
 31
0.0
  0
LINE
  5
13E
330
1F
100
AcDbEntity
  8
0
  6
Continuous
 62
     7
370
    25
100
AcDbLine
 10
6296.7687553361
 20
5058.021810657
 30
0.0
 11
6296.7687553361
 21
5079.671810657
 31
0.0
  0
LWPOLYLINE
  5
13F
330
1F
100
AcDbEntity
  8
0
  6
Continuous
 62
     7
370
    25
100
AcDbPolyline
 90
       27
 70
   128
 43
0.0
 10
6254.0187553361
 20
5253.6213287987
 10
6254.4110601815
 20
5253.6765201362
 10
6255.2950667855
 20
5253.8417463572
 10
6255.8364483722
 20
5254.0178413619
 10
6256.0187553361
 20
5254.1994545927
 10
6255.8364483722
 20
5254.3810678235
 10
6255.2950667855
 20
5254.5571628282
 10
6254.4110601815
 20
5254.7223890492
 10
6253.2112886535
 20
5254.8717261713
 10
6251.7322066523
 20
5255.0006366617
 10
6250.0187553361
 20
5255.1052036404
 10
6248.122997056
 20
5255.1822498925
 10
6246.1025334681
 20
5255.2294344068
 10
6244.0187553361
 20
5255.2453235057
 10
6241.9349772041
 20
5255.2294344068
 10
6239.9145136162
 20
5255.1822498925
 10
6238.0187553361
 20
5255.1052036404
 10
6236.3053040199
 20
5255.0006366617
 10
6234.8262220187
 20
5254.8717261713
 10
6233.6264504907
 20
5254.7223890492
 10
6232.7424438867
 20
5254.5571628282
 10
6232.2010623
 20
5254.3810678235
 10
6232.0187553361
 20
5254.1994545927
 10
6232.2010623
 20
5254.0178413619
 10
6232.7424438867
 20
5253.8417463572
 10
6233.6264504907
 20
5253.6765201362
 10
6234.0187553361
 20
5253.6213287987
  0
LWPOLYLINE
  5
140
330
1F
100
AcDbEntity
  8
0
  6
Continuous
 62
     7
370
    25
100
AcDbPolyline
 90
       18
 70
   128
 43
0.0
 10
6254.0187553361
 20
5254.1994545927
 10
6253.9169697549
 20
5254.3234901471
 10
6253.4687635232
 20
5254.4845131054
 10
6252.6790093739
 20
5254.6352333065
 10
6251.5762510796
 20
5254.7702033294
 10
6250.2003451983
 20
5254.8845450058
 10
6248.6010205534
 20
5254.9741257298
 10
6246.8360809045
 20
5255.0357078205
 10
6244.9693157691
 20
5255.0670655407
 10
6243.0681949031
 20
5255.0670655407
 10
6241.2014297677
 20
5255.0357078205
 10
6239.4364901188
 20
5254.9741257298
 10
6237.8371654739
 20
5254.8845450058
 10
6236.4612595926
 20
5254.7702033294
 10
6235.3585012983
 20
5254.6352333065
 10
6234.568747149
 20
5254.4845131054
 10
6234.1205409173
 20
5254.3234901471
 10
6234.0187553361
 20
5254.1994545927
  0
LWPOLYLINE
  5
141
330
1F
100
AcDbEntity
  8
0
  6
Continuous
 62
     7
370
    25
100
AcDbPolyline
 90
       20
 70
   128
 43
0.0
 10
6256.0187553361
 20
5313.9711364782
 10
6255.8364483722
 20
5314.152749709
 10
6255.2950667855
 20
5314.3288447137
 10
6254.4110601815
 20
5314.4940709347
 10
6253.2112886535
 20
5314.6434080568
 10
6251.7322066523
 20
5314.7723185472
 10
6250.0187553361
 20
5314.8768855259
 10
6248.122997056
 20
5314.9539317781
 10
6246.1025334681
 20
5315.0011162924
 10
6244.0187553361
 20
5315.0170053912
 10
6241.9349772041
 20
5315.0011162924
 10
6239.9145136162
 20
5314.9539317781
 10
6238.0187553361
 20
5314.8768855259
 10
6236.3053040199
 20
5314.7723185472
 10
6234.8262220187
 20
5314.6434080568
 10
6233.6264504907
 20
5314.4940709347
 10
6232.7424438867
 20
5314.3288447137
 10
6232.2010623
 20
5314.152749709
 10
6232.0187553361
 20
5313.9711364782
 10
6232.0187553361
 20
5313.9711364782
  0
LWPOLYLINE
  5
142
330
1F
100
AcDbEntity
  8
0
  6
Continuous
 62
     7
370
    25
100
AcDbPolyline
 90
       34
 70
   128
 43
0.0
 10
6244.0187553361
 20
5252.0824279259
 10
6245.9112677797
 20
5252.0666777478
 10
6247.7353798927
 20
5252.0199964659
 10
6249.4251635107
 20
5251.9440712634
 10
6250.9195454509
 20
5251.8416462749
 10
6252.1645148566
 20
5251.7164234063
 10
6253.1150752896
 20
5251.5729285385
 10
6253.7368710193
 20
5251.4163479498
 10
6254.0074287279
 20
5251.2523408706
 10
6253.9169697549
 20
5251.0868349441
 10
6253.4687635232
 20
5250.9258119857
 10
6252.6790093739
 20
5250.7750917847
 10
6251.5762510796
 20
5250.6401217618
 10
6250.2003451983
 20
5250.5257800853
 10
6248.6010205534
 20
5250.4361993614
 10
6246.8360809045
 20
5250.3746172707
 10
6244.9693157691
 20
5250.3432595505
 10
6243.0681949031
 20
5250.3432595505
 10
6241.2014297677
 20
5250.3746172707
 10
6239.4364901188
 20
5250.4361993614
 10
6237.8371654739
 20
5250.5257800853
 10
6236.4612595926
 20
5250.6401217618
 10
6235.3585012983
 20
5250.7750917847
 10
6234.568747149
 20
5250.9258119857
 10
6234.1205409173
 20
5251.0868349441
 10
6234.0300819443
 20
5251.2523408706
 10
6234.3006396529
 20
5251.4163479498
 10
6234.9224353826
 20
5251.5729285385
 10
6235.8729958156
 20
5251.7164234063
 10
6237.1179652213
 20
5251.8416462749
 10
6238.6123471615
 20
5251.9440712634
 10
6240.3021307795
 20
5252.0199964659
 10
6242.1262428925
 20
5252.0666777478
 10
6244.0187553361
 20
5252.0824279259
  0
LWPOLYLINE
  5
143
330
1F
100
AcDbEntity
  8
0
  6
Continuous
 62
     7
370
    25
100
AcDbPolyline
 90
       33
 70
   128
 43
0.0
 10
6244.0187553361
 20
5252.0257766931
 10
6245.842849847
 20
5252.0101184991
 10
6247.5968454287
 20
5251.9637456526
 10
6249.2133370148
 20
5251.8884402362
 10
6250.6302037402
 20
5251.7870961947
 10
6251.7929962111
 20
5251.6636081229
 10
6252.6570289651
 20
5251.5227215981
 10
6253.1890977079
 20
5251.3698508104
 10
6253.3687553361
 20
5251.2108704984
 10
6253.1890977079
 20
5251.0518901865
 10
6252.6570289651
 20
5250.8990193988
 10
6251.7929962111
 20
5250.758132874
 10
6250.6302037402
 20
5250.6346448021
 10
6249.2133370148
 20
5250.5333007607
 10
6247.5968454287
 20
5250.4579953443
 10
6245.842849847
 20
5250.4116224978
 10
6244.0187553361
 20
5250.3959643038
 10
6242.1946608252
 20
5250.4116224978
 10
6240.4406652435
 20
5250.4579953443
 10
6238.8241736574
 20
5250.5333007607
 10
6237.407306932
 20
5250.6346448021
 10
6236.2445144611
 20
5250.758132874
 10
6235.3804817071
 20
5250.8990193988
 10
6234.8484129643
 20
5251.0518901865
 10
6234.6687553361
 20
5251.2108704984
 10
6234.8484129643
 20
5251.3698508104
 10
6235.3804817071
 20
5251.5227215981
 10
6236.2445144611
 20
5251.6636081229
 10
6237.407306932
 20
5251.7870961947
 10
6238.8241736574
 20
5251.8884402362
 10
6240.4406652435
 20
5251.9637456526
 10
6242.1946608252
 20
5252.0101184991
 10
6244.0187553361
 20
5252.0257766931
  0
LWPOLYLINE
  5
144
330
1F
100
AcDbEntity
  8
0
  6
Continuous
 62
     7
370
    25
100
AcDbPolyline
 90
       23
 70
   128
 43
0.0
 10
6255.6735663179
 20
5314.2201851527
 10
6255.8364483722
 20
5314.2876205965
 10
6256.0187553361
 20
5314.4692338273
 10
6255.8364483722
 20
5314.6508470581
 10
6255.2950667855
 20
5314.8269420628
 10
6254.4110601815
 20
5314.9921682838
 10
6253.2112886535
 20
5315.1415054059
 10
6251.7322066523
 20
5315.2704158963
 10
6250.0187553361
 20
5315.3749828749
 10
6248.122997056
 20
5315.4520291271
 10
6246.1025334681
 20
5315.4992136414
 10
6244.0187553361
 20
5315.5151027402
 10
6241.9349772041
 20
5315.4992136414
 10
6239.9145136162
 20
5315.4520291271
 10
6238.0187553361
 20
5315.3749828749
 10
6236.3053040199
 20
5315.2704158963
 10
6234.8262220187
 20
5315.1415054059
 10
6233.6264504907
 20
5314.9921682838
 10
6232.7424438867
 20
5314.8269420628
 10
6232.2010623
 20
5314.6508470581
 10
6232.0187553361
 20
5314.4692338273
 10
6232.2010623
 20
5314.2876205965
 10
6232.3639443543
 20
5314.2201851527
  0
LWPOLYLINE
  5
145
330
1F
100
AcDbEntity
  8
0
  6
Continuous
 62
     7
370
    25
100
AcDbPolyline
 90
       18
 70
   128
 43
0.0
 10
6253.9694316735
 20
5314.5556912886
 10
6253.9169697549
 20
5314.5932693816
 10
6253.4687635232
 20
5314.75429234
 10
6252.6790093739
 20
5314.905012541
 10
6251.5762510796
 20
5315.0399825639
 10
6250.2003451983
 20
5315.1543242404
 10
6248.6010205534
 20
5315.2439049643
 10
6246.8360809045
 20
5315.305487055
 10
6244.9693157691
 20
5315.3368447752
 10
6243.0681949031
 20
5315.3368447752
 10
6241.2014297677
 20
5315.305487055
 10
6239.4364901188
 20
5315.2439049643
 10
6237.8371654739
 20
5315.1543242404
 10
6236.4612595926
 20
5315.0399825639
 10
6235.3585012983
 20
5314.905012541
 10
6234.568747149
 20
5314.75429234
 10
6234.1205409173
 20
5314.5932693816
 10
6234.0680789987
 20
5314.5556912886
  0
LINE
  5
146
330
1F
100
AcDbEntity
  8
0
  6
Continuous
 62
     7
370
    25
100
AcDbLine
 10
6244.0187553361
 20
5142.1994545927
 30
0.0
 11
6256.0187553361
 21
5142.1994545927
 31
0.0
  0
LINE
  5
147
330
1F
100
AcDbEntity
  8
0
  6
Continuous
 62
     7
370
    25
100
AcDbLine
 10
6232.0187553361
 20
5142.1994545927
 30
0.0
 11
6244.0187553361
 21
5142.1994545927
 31
0.0
  0
LWPOLYLINE
  5
148
330
1F
100
AcDbEntity
  8
0
  6
Continuous
 62
     7
370
    25
100
AcDbPolyline
 90
       10
 70
   128
 43
0.0
 10
6319.5588386928
 20
5057.9279160968
 10
6319.5710250933
 20
5057.9261774288
 10
6319.4056900477
 20
5057.9485803134
 10
6319.2582518716
 20
5057.9653087576
 10
6319.2088229199
 20
5057.9695968155
 10
6319.1779160823
 20
5057.9714485648
 10
6319.17083671
 20
5057.9716901099
 10
6319.16303974
 20
5057.9718100521
 10
6319.162499581
 20
5057.971810657
 10
6319.162499581
 20
5057.971810657
  0
SPLINE
  5
149
330
1F
100
AcDbEntity
  8
0
  6
Continuous
 62
     7
370
    25
100
AcDbSpline
210
0.0
220
0.0
230
1.0
 70
     8
 71
     3
 72
    13
 73
     9
 74
     0
 42
0.00000001
 43
0.00000001
 40
0.0
 40
0.0
 40
0.0
 40
0.0
 40
0.0039926506634582
 40
0.0119543390930095
 40
0.0403345398643174
 40
0.1772188364858272
 40
0.6654994679958995
 40
0.9999999999999999
 40
0.9999999999999999
 40
0.9999999999999999
 40
0.9999999999999999
 10
6312.375011091169
 20
5057.971810657003
 30
0.0
 10
6312.372923216168
 20
5057.971793827406
 30
0.0
 10
6312.366671939043
 20
5057.971743438146
 30
0.0
 10
6312.348018727269
 20
5057.971003287246
 30
0.0
 10
6312.285391555549
 20
5057.966562771298
 30
0.0
 10
6312.119323843523
 20
5057.948003377589
 30
0.0
 10
6311.947803101764
 20
5057.923519905024
 30
0.0
 10
6311.970872437211
 20
5057.926812903186
 30
0.0
 10
6311.980251243293
 20
5057.928151666987
 30
0.0
  0
SPLINE
  5
14A
330
1F
100
AcDbEntity
  8
0
  6
Continuous
 62
     7
370
    25
100
AcDbSpline
210
0.0
220
0.0
230
1.0
 70
     8
 71
     3
 72
    18
 73
    14
 74
     0
 42
0.00000001
 43
0.00000001
 40
0.0
 40
0.0
 40
0.0
 40
0.0
 40
0.0329567048689195
 40
0.137424741895031
 40
0.2427426129618791
 40
0.350472532545662
 40
0.4585564623723665
 40
0.5642073013204779
 40
0.6684738956036933
 40
0.7745142129231545
 40
0.8827418040857998
 40
0.9902079181594952
 40
1.0
 40
1.0
 40
1.0
 40
1.0
 10
6320.708774586958
 20
5101.408154213572
 30
0.0
 10
6320.725934456024
 20
5101.412056617491
 30
0.0
 10
6320.797488653771
 20
5101.428329083246
 30
0.0
 10
6320.364414556467
 20
5101.328781827518
 30
0.0
 10
6319.450503433601
 20
5101.147393996736
 30
0.0
 10
6318.078473554885
 20
5100.946543897879
 30
0.0
 10
6316.447099168361
 20
5100.827365375791
 30
0.0
 10
6314.750498729765
 20
5100.84250765612
 30
0.0
 10
6313.188213744402
 20
5100.979734087008
 30
0.0
 10
6311.883799342972
 20
5101.184257079282
 30
0.0
 10
6311.053880923675
 20
5101.355306926802
 30
0.0
 10
6310.693998534481
 20
5101.438654235413
 30
0.0
 10
6310.784209073404
 20
5101.418326015484
 30
0.0
 10
6310.791742440032
 20
5101.41662843186
 30
0.0
  0
LINE
  5
14B
330
1F
100
AcDbEntity
  8
0
  6
Continuous
 62
     7
370
    25
100
AcDbLine
 10
6299.7687553361
 20
5079.671810657
 30
0.0
 11
6307.6851079314
 21
5057.921810657
 31
0.0
  0
LINE
  5
14C
330
1F
100
AcDbEntity
  8
0
  6
Continuous
 62
     7
370
    25
100
AcDbLine
 10
6299.7687553361
 20
5079.671810657
 30
0.0
 11
6299.7687553361
 21
5101.421810657
 31
0.0
  0
LINE
  5
14D
330
1F
100
AcDbEntity
  8
0
  6
Continuous
 62
     7
370
    25
100
AcDbLine
 10
6328.7687553361
 20
5079.671810657
 30
0.0
 11
6328.7687553361
 21
5101.421810657
 31
0.0
  0
LINE
  5
14E
330
1F
100
AcDbEntity
  8
0
  6
Continuous
 62
     7
370
    25
100
AcDbLine
 10
6328.7687553361
 20
5057.921810657
 30
0.0
 11
6328.7687553361
 21
5079.671810657
 31
0.0
  0
LINE
  5
14F
330
1F
100
AcDbEntity
  8
0
  6
Continuous
 62
     7
370
    25
100
AcDbLine
 10
6320.7687553361
 20
5160.421810657
 30
0.0
 11
6310.7687553361
 21
5160.421810657
 31
0.0
  0
LINE
  5
150
330
1F
100
AcDbEntity
  8
0
  6
Continuous
 62
     7
370
    25
100
AcDbLine
 10
6319.162499581
 20
5057.971810657
 30
0.0
 11
6312.3750110912
 21
5057.971810657
 31
0.0
  0
LINE
  5
151
330
1F
100
AcDbEntity
  8
0
  6
Continuous
 62
     8
370
    25
100
AcDbLine
 10
6222.512215378
 20
5018.6994545927
 30
0.0
 11
6222.9756448246
 21
5018.6994545927
 31
0.0
  0
SPLINE
  5
152
330
1F
100
AcDbEntity
  8
0
  6
Continuous
 62
     8
370
    25
100
AcDbSpline
210
0.0
220
0.0
230
1.0
 70
     8
 71
     3
 72
    12
 73
     8
 74
     0
 42
0.00000001
 43
0.00000001
 40
0.0
 40
0.0
 40
0.0
 40
0.0
 40
0.20924721081674
 40
0.4192412478760234
 40
0.6332497006300801
 40
0.8505594867165344
 40
1.0
 40
1.0
 40
1.0
 40
1.0
 10
6222.512215378034
 20
5018.699454592719
 30
0.0
 10
6222.501144393406
 20
5019.248916787658
 30
0.0
 10
6222.478962910593
 20
5020.349802268369
 30
0.0
 10
6222.3241909815
 20
5021.821111491313
 30
0.0
 10
6222.155374647808
 20
5022.933618241509
 30
0.0
 10
6222.031718226026
 20
5023.579354357653
 30
0.0
 10
6222.03075762982
 20
5023.583253898099
 30
0.0
 10
6222.03036621367
 20
5023.584842852018
 30
0.0
  0
SPLINE
  5
153
330
1F
100
AcDbEntity
  8
0
  6
Continuous
 62
     8
370
    25
100
AcDbSpline
210
0.0
220
0.0
230
1.0
 70
     8
 71
     3
 72
    13
 73
     9
 74
     0
 42
0.00000001
 43
0.00000001
 40
0.0
 40
0.0
 40
0.0
 40
0.0
 40
0.0663095288023155
 40
0.2794421706448411
 40
0.4927856567808278
 40
0.7079976722961868
 40
0.9221073402551221
 40
1.0
 40
1.0
 40
1.0
 40
1.0
 10
6222.030369422697
 20
4996.814082820233
 30
0.0
 10
6222.027139176003
 20
4996.797562452281
 30
0.0
 10
6222.013526243381
 20
4996.727942179545
 30
0.0
 10
6222.09927477113
 20
4997.161957404744
 30
0.0
 10
6222.255130814407
 20
4998.078682200195
 30
0.0
 10
6222.424109567215
 20
4999.446352787652
 30
0.0
 10
6222.504875548692
 20
5000.734710218442
 30
0.0
 10
6222.510669753332
 20
5001.496298270421
 30
0.0
 10
6222.512215378034
 20
5001.699454592719
 30
0.0
  0
LINE
  5
154
330
1F
100
AcDbEntity
  8
0
  6
Continuous
 62
     8
370
    25
100
AcDbLine
 10
6222.512215378
 20
5001.6994545927
 30
0.0
 11
6222.9756448246
 21
5001.6994545927
 31
0.0
  0
LWPOLYLINE
  5
155
330
1F
100
AcDbEntity
  8
0
  6
Continuous
 62
     8
370
    25
100
AcDbPolyline
 90
       19
 70
   128
 43
0.0
 10
6256.0187553361
 20
5342.9446328004
 10
6255.8364483722
 20
5343.1262460312
 10
6255.2950667855
 20
5343.3023410359
 10
6254.4110601815
 20
5343.4675672569
 10
6253.2112886535
 20
5343.616904379
 10
6251.7322066523
 20
5343.7458148694
 10
6250.0187553361
 20
5343.850381848
 10
6248.122997056
 20
5343.9274281002
 10
6246.1025334681
 20
5343.9746126145
 10
6244.0187553361
 20
5343.9905017133
 10
6241.9349772041
 20
5343.9746126145
 10
6239.9145136162
 20
5343.9274281002
 10
6238.0187553361
 20
5343.850381848
 10
6236.3053040199
 20
5343.7458148694
 10
6234.8262220187
 20
5343.616904379
 10
6233.6264504907
 20
5343.4675672569
 10
6232.7424438867
 20
5343.3023410359
 10
6232.2010623
 20
5343.1262460312
 10
6232.0187553361
 20
5342.9446328004
  0
LINE
  5
156
330
1F
100
AcDbEntity
  8
0
  6
Continuous
 62
     8
370
    25
100
AcDbLine
 10
6319.5780170811
 20
5057.6042938785
 30
0.0
 11
6311.9594935911
 21
5057.6042938785
 31
0.0
  0
LINE
  5
157
330
1F
100
AcDbEntity
  8
0
  6
Continuous
 62
     7
370
    25
100
AcDbLine
 10
6569.0522590855
 20
4978.1994545927
 30
0.0
 11
6569.0522590855
 21
5028.4994545927
 31
0.0
  0
LINE
  5
158
330
1F
100
AcDbEntity
  8
0
  6
Continuous
 62
     7
370
    25
100
AcDbLine
 10
6525.5522590855
 20
5028.4994545927
 30
0.0
 11
6525.5522590855
 21
4978.1994545927
 31
0.0
  0
LINE
  5
159
330
1F
100
AcDbEntity
  8
0
  6
Continuous
 62
     7
370
    25
100
AcDbLine
 10
6569.0522590855
 20
5028.4994545927
 30
0.0
 11
6568.8522590855
 21
5028.6994545927
 31
0.0
  0
LINE
  5
15A
330
1F
100
AcDbEntity
  8
0
  6
Continuous
 62
     7
370
    25
100
AcDbLine
 10
6525.7522590855
 20
5028.6994545927
 30
0.0
 11
6525.5522590855
 21
5028.4994545927
 31
0.0
  0
LINE
  5
15B
330
1F
100
AcDbEntity
  8
0
  6
Continuous
 62
     7
370
    25
100
AcDbLine
 10
6522.5522590855
 20
4978.1994545927
 30
0.0
 11
6522.5522590855
 21
4972.1994545927
 31
0.0
  0
LINE
  5
15C
330
1F
100
AcDbEntity
  8
0
  6
Continuous
 62
     7
370
    25
100
AcDbLine
 10
6572.0522590855
 20
4972.1994545927
 30
0.0
 11
6572.0522590855
 21
4978.1994545927
 31
0.0
  0
LINE
  5
15D
330
1F
100
AcDbEntity
  8
0
  6
Continuous
 62
     7
370
    25
100
AcDbLine
 10
6525.8022590855
 20
5029.1994545927
 30
0.0
 11
6526.3022590855
 21
5028.6994545927
 31
0.0
  0
LINE
  5
15E
330
1F
100
AcDbEntity
  8
0
  6
Continuous
 62
     7
370
    25
100
AcDbLine
 10
6568.3022590855
 20
5028.6994545927
 30
0.0
 11
6568.8022590855
 21
5029.1994545927
 31
0.0
  0
LINE
  5
15F
330
1F
100
AcDbEntity
  8
0
  6
Continuous
 62
     7
370
    25
100
AcDbLine
 10
6568.8022590855
 20
5029.1994545927
 30
0.0
 11
6568.8022590855
 21
5032.1994545927
 31
0.0
  0
LINE
  5
160
330
1F
100
AcDbEntity
  8
0
  6
Continuous
 62
     7
370
    25
100
AcDbLine
 10
6525.8022590855
 20
5032.1994545927
 30
0.0
 11
6525.8022590855
 21
5029.1994545927
 31
0.0
  0
LINE
  5
161
330
1F
100
AcDbEntity
  8
0
  6
Continuous
 62
     7
370
    25
100
AcDbLine
 10
6568.8022590855
 20
5032.1994545927
 30
0.0
 11
6568.3022590855
 21
5032.6994545927
 31
0.0
  0
LINE
  5
162
330
1F
100
AcDbEntity
  8
0
  6
Continuous
 62
     7
370
    25
100
AcDbLine
 10
6526.3022590855
 20
5032.6994545927
 30
0.0
 11
6525.8022590855
 21
5032.1994545927
 31
0.0
  0
LINE
  5
163
330
1F
100
AcDbEntity
  8
0
  6
Continuous
 62
     7
370
    25
100
AcDbLine
 10
6569.0522590855
 20
5079.671810657
 30
0.0
 11
6569.0522590855
 21
5141.6994545927
 31
0.0
  0
LINE
  5
164
330
1F
100
AcDbEntity
  8
0
  6
Continuous
 62
     7
370
    25
100
AcDbLine
 10
6569.0522590855
 20
5032.6994545927
 30
0.0
 11
6569.0522590855
 21
5079.671810657
 31
0.0
  0
LINE
  5
165
330
1F
100
AcDbEntity
  8
0
  6
Continuous
 62
     7
370
    25
100
AcDbLine
 10
6525.5522590855
 20
5079.671810657
 30
0.0
 11
6525.5522590855
 21
5032.6994545927
 31
0.0
  0
LINE
  5
166
330
1F
100
AcDbEntity
  8
0
  6
Continuous
 62
     7
370
    25
100
AcDbLine
 10
6525.5522590855
 20
5141.6994545927
 30
0.0
 11
6525.5522590855
 21
5079.671810657
 31
0.0
  0
LINE
  5
167
330
1F
100
AcDbEntity
  8
0
  6
Continuous
 62
     7
370
    25
100
AcDbLine
 10
6558.8022590855
 20
5141.6994545927
 30
0.0
 11
6558.8022590855
 21
5142.1994545927
 31
0.0
  0
LINE
  5
168
330
1F
100
AcDbEntity
  8
0
  6
Continuous
 62
     7
370
    25
100
AcDbLine
 10
6535.8022590855
 20
5142.1994545927
 30
0.0
 11
6535.8022590855
 21
5141.6994545927
 31
0.0
  0
ARC
  5
169
330
1F
100
AcDbEntity
  8
0
  6
Continuous
 62
     7
370
    25
100
AcDbCircle
 10
6657.1291227546
 20
5333.3725909236
 30
0.0
 40
97.82686366907046
100
AcDbArc
 50
5.0
 51
180.0
  0
ARC
  5
16A
330
1F
100
AcDbEntity
  8
0
  6
Continuous
 62
     7
370
    25
100
AcDbCircle
 10
6657.1291227546
 20
5333.3725909236
 30
0.0
 40
121.8268636690711
100
AcDbArc
 50
5.0
 51
180.0
  0
LINE
  5
16B
330
1F
100
AcDbEntity
  8
0
  6
Continuous
 62
     7
370
    25
100
AcDbLine
 10
6535.3022590855
 20
5333.3725909236
 30
0.0
 11
6535.3022590855
 21
5142.1994545927
 31
0.0
  0
LINE
  5
16C
330
1F
100
AcDbEntity
  8
0
  6
Continuous
 62
     7
370
    25
100
AcDbLine
 10
6559.3022590855
 20
5142.1994545927
 30
0.0
 11
6559.3022590855
 21
5333.3725909236
 31
0.0
  0
LINE
  5
16D
330
1F
100
AcDbEntity
  8
0
  6
Continuous
 62
     7
370
    25
100
AcDbLine
 10
6780.9836730264
 20
5315.5151027402
 30
0.0
 11
6778.4923984269
 21
5343.9905017133
 31
0.0
  0
LINE
  5
16E
330
1F
100
AcDbEntity
  8
0
  6
Continuous
 62
     7
370
    25
100
AcDbLine
 10
6754.5837256727
 20
5341.8987638874
 30
0.0
 11
6757.0750002722
 21
5313.4233649143
 31
0.0
  0
LINE
  5
16F
330
1F
100
AcDbEntity
  8
0
  6
Continuous
 62
     7
370
    25
100
AcDbLine
 10
6786.2565954626
 20
5255.2453235057
 30
0.0
 11
6781.0272508978
 21
5315.0170053912
 31
0.0
  0
LINE
  5
170
330
1F
100
AcDbEntity
  8
0
  6
Continuous
 62
     7
370
    25
100
AcDbLine
 10
6757.1185781436
 20
5312.9252675653
 30
0.0
 11
6762.3479227084
 21
5253.1535856797
 31
0.0
  0
LINE
  5
171
330
1F
100
AcDbEntity
  8
0
  6
Continuous
 62
     7
370
    25
100
AcDbLine
 10
6779.0348615016
 20
5314.8426939057
 30
0.0
 11
6778.9912836302
 21
5315.3407912547
 31
0.0
  0
LINE
  5
172
330
1F
100
AcDbEntity
  8
0
  6
Continuous
 62
     7
370
    25
100
AcDbLine
 10
6759.0673896684
 20
5313.5976763998
 30
0.0
 11
6759.1109675397
 21
5313.0995790507
 31
0.0
  0
LINE
  5
173
330
1F
100
AcDbEntity
  8
0
  6
Continuous
 62
     7
370
    25
100
AcDbLine
 10
6764.3403121046
 20
5253.3278971652
 30
0.0
 11
6764.6017793328
 21
5250.339313071
 31
0.0
  0
LINE
  5
174
330
1F
100
AcDbEntity
  8
0
  6
Continuous
 62
     7
370
    25
100
AcDbLine
 10
6784.5256732947
 20
5252.0824279259
 30
0.0
 11
6784.2642060664
 21
5255.0710120202
 31
0.0
  0
SPLINE
  5
175
330
1F
100
AcDbEntity
  8
0
  6
Continuous
 62
     7
370
    25
100
AcDbSpline
210
0.0
220
0.0
230
1.0
 70
     8
 71
     3
 72
    17
 73
    13
 74
     0
 42
0.00000001
 43
0.00000001
 40
0.0
 40
0.0
 40
0.0
 40
0.0
 40
0.0392862424498799
 40
0.147076380023538
 40
0.2548056488929506
 40
0.3609371439738446
 40
0.4665184493552765
 40
0.5734679872470192
 40
0.6815553189012702
 40
0.7885630026869089
 40
0.8942316017292733
 40
1.0
 40
1.0
 40
1.0
 40
1.0
 10
6552.755314733216
 20
5001.699454592719
 30
0.0
 10
6552.746850040084
 20
5001.475852941454
 30
0.0
 10
6552.715160666235
 20
5000.638752740858
 30
0.0
 10
6552.272198768912
 20
4999.221955055702
 30
0.0
 10
6551.178587297685
 20
4997.724410719706
 30
0.0
 10
6549.658226907544
 20
4996.677448995022
 30
0.0
 10
6547.880344992474
 20
4996.182548612888
 30
0.0
 10
6546.024143518647
 20
4996.298912462967
 30
0.0
 10
6544.304480534841
 20
4997.025883401898
 30
0.0
 10
6542.943147015498
 20
4998.27096132511
 30
0.0
 10
6542.025878616984
 20
4999.885804558159
 30
0.0
 10
6541.908113692727
 20
5001.094714377547
 30
0.0
 10
6541.849203437807
 20
5001.699454592719
 30
0.0
  0
LINE
  5
176
330
1F
100
AcDbEntity
  8
0
  6
Continuous
 62
     7
370
    25
100
AcDbLine
 10
6541.8492034378
 20
5001.6994545927
 30
0.0
 11
6542.2523351711
 21
5001.6994545927
 31
0.0
  0
SPLINE
  5
177
330
1F
100
AcDbEntity
  8
0
  6
Continuous
 62
     7
370
    25
100
AcDbSpline
210
0.0
220
0.0
230
1.0
 70
     8
 71
     3
 72
    17
 73
    13
 74
     0
 42
0.00000001
 43
0.00000001
 40
0.0
 40
0.0
 40
0.0
 40
0.0
 40
0.1047690771135599
 40
0.2099120865528607
 40
0.3170650947197424
 40
0.4258710646877851
 40
0.533787843275158
 40
0.6402096518798955
 40
0.7467367396706373
 40
0.8541968252146318
 40
0.9611064844154278
 40
1.0
 40
1.0
 40
1.0
 40
1.0
 10
6542.252335171075
 20
5001.699454592719
 30
0.0
 10
6542.307124652468
 20
5001.149719084107
 30
0.0
 10
6542.416899164921
 20
5000.048286000569
 30
0.0
 10
6543.269232755336
 20
4998.581121311639
 30
0.0
 10
6544.530391790176
 20
4997.452479482268
 30
0.0
 10
6546.120931774434
 20
4996.79451883219
 30
0.0
 10
6547.836560289908
 20
4996.689250037025
 30
0.0
 10
6549.480362128682
 20
4997.137092661301
 30
0.0
 10
6550.887723996791
 20
4998.085426700321
 30
0.0
 10
6551.902452333679
 20
4999.444500092325
 30
0.0
 10
6552.314948239169
 20
5000.734852185557
 30
0.0
 10
6552.34434208658
 20
5001.496328165923
 30
0.0
 10
6552.352182999948
 20
5001.699454592719
 30
0.0
  0
LINE
  5
178
330
1F
100
AcDbEntity
  8
0
  6
Continuous
 62
     7
370
    25
100
AcDbLine
 10
6552.3521829999
 20
5001.6994545927
 30
0.0
 11
6552.7553147332
 21
5001.6994545927
 31
0.0
  0
SPLINE
  5
179
330
1F
100
AcDbEntity
  8
0
  6
Continuous
 62
     7
370
    25
100
AcDbSpline
210
0.0
220
0.0
230
1.0
 70
     8
 71
     3
 72
    17
 73
    13
 74
     0
 42
0.00000001
 43
0.00000001
 40
0.0
 40
0.0
 40
0.0
 40
0.0
 40
0.0392862424498796
 40
0.1470763800235382
 40
0.2548056488929507
 40
0.3609371439738446
 40
0.4665184493552765
 40
0.5734679872470193
 40
0.6815553189012703
 40
0.7885630026869092
 40
0.8942316017292733
 40
1.0
 40
1.0
 40
1.0
 40
1.0
 10
6541.849203437807
 20
5018.699454592719
 30
0.0
 10
6541.857668130941
 20
5018.923056243984
 30
0.0
 10
6541.889357504789
 20
5019.76015644458
 30
0.0
 10
6542.332319402112
 20
5021.176954129736
 30
0.0
 10
6543.425930873338
 20
5022.674498465733
 30
0.0
 10
6544.946291263481
 20
5023.721460190416
 30
0.0
 10
6546.72417317855
 20
5024.21636057255
 30
0.0
 10
6548.580374652377
 20
5024.099996722472
 30
0.0
 10
6550.300037636184
 20
5023.37302578354
 30
0.0
 10
6551.661371155526
 20
5022.127947860328
 30
0.0
 10
6552.57863955404
 20
5020.513104627279
 30
0.0
 10
6552.696404478297
 20
5019.304194807891
 30
0.0
 10
6552.755314733216
 20
5018.699454592719
 30
0.0
  0
LINE
  5
17A
330
1F
100
AcDbEntity
  8
0
  6
Continuous
 62
     7
370
    25
100
AcDbLine
 10
6552.3521829999
 20
5018.6994545927
 30
0.0
 11
6552.7553147332
 21
5018.6994545927
 31
0.0
  0
SPLINE
  5
17B
330
1F
100
AcDbEntity
  8
0
  6
Continuous
 62
     7
370
    25
100
AcDbSpline
210
0.0
220
0.0
230
1.0
 70
     8
 71
     3
 72
    17
 73
    13
 74
     0
 42
0.00000001
 43
0.00000001
 40
0.0
 40
0.0
 40
0.0
 40
0.0
 40
0.1047690771135598
 40
0.2099120865528604
 40
0.3170650947197424
 40
0.4258710646877851
 40
0.5337878432751582
 40
0.6402096518798956
 40
0.7467367396706376
 40
0.8541968252146319
 40
0.9611064844154279
 40
1.0
 40
1.0
 40
1.0
 40
1.0
 10
6552.352182999948
 20
5018.699454592719
 30
0.0
 10
6552.297393518556
 20
5019.249190101331
 30
0.0
 10
6552.187619006103
 20
5020.35062318487
 30
0.0
 10
6551.335285415687
 20
5021.8177878738
 30
0.0
 10
6550.074126380849
 20
5022.94642970317
 30
0.0
 10
6548.483586396589
 20
5023.604390353248
 30
0.0
 10
6546.767957881116
 20
5023.709659148413
 30
0.0
 10
6545.124156042342
 20
5023.261816524137
 30
0.0
 10
6543.716794174232
 20
5022.313482485117
 30
0.0
 10
6542.702065837345
 20
5020.954409093113
 30
0.0
 10
6542.289569931855
 20
5019.664056999881
 30
0.0
 10
6542.260176084445
 20
5018.902581019515
 30
0.0
 10
6542.252335171075
 20
5018.699454592719
 30
0.0
  0
LINE
  5
17C
330
1F
100
AcDbEntity
  8
0
  6
Continuous
 62
     7
370
    25
100
AcDbLine
 10
6541.8492034378
 20
5018.6994545927
 30
0.0
 11
6542.2523351711
 21
5018.6994545927
 31
0.0
  0
LINE
  5
17D
330
1F
100
AcDbEntity
  8
0
  6
Continuous
 62
     7
370
    25
100
AcDbLine
 10
6542.2523351711
 20
5018.6994545927
 30
0.0
 11
6542.2523351711
 21
5001.6994545927
 31
0.0
  0
LINE
  5
17E
330
1F
100
AcDbEntity
  8
0
  6
Continuous
 62
     7
370
    25
100
AcDbLine
 10
6552.3521829999
 20
5001.6994545927
 30
0.0
 11
6552.3521829999
 21
5018.6994545927
 31
0.0
  0
LINE
  5
17F
330
1F
100
AcDbEntity
  8
0
  6
Continuous
 62
     7
370
    25
100
AcDbLine
 10
6541.8492034378
 20
5001.6994545927
 30
0.0
 11
6541.8492034378
 21
5018.6994545927
 31
0.0
  0
LINE
  5
180
330
1F
100
AcDbEntity
  8
0
  6
Continuous
 62
     7
370
    25
100
AcDbLine
 10
6552.7553147332
 20
5018.6994545927
 30
0.0
 11
6552.7553147332
 21
5001.6994545927
 31
0.0
  0
LINE
  5
181
330
1F
100
AcDbEntity
  8
0
  6
Continuous
 62
     7
370
    25
100
AcDbLine
 10
6569.0522590855
 20
5028.4994545927
 30
0.0
 11
6525.5522590855
 21
5028.4994545927
 31
0.0
  0
SPLINE
  5
182
330
1F
100
AcDbEntity
  8
0
  6
Continuous
 62
     7
370
    25
100
AcDbSpline
210
0.0
220
0.0
230
1.0
 70
     8
 71
     3
 72
    44
 73
    40
 74
     0
 42
0.00000001
 43
0.00000001
 40
0.0
 40
0.0
 40
0.0
 40
0.0
 40
0.0625000000000002
 40
0.0625000000000002
 40
0.0937500000000002
 40
0.0937500000000002
 40
0.1250000000000003
 40
0.1250000000000003
 40
0.1875000000000003
 40
0.1875000000000003
 40
0.2500000000000003
 40
0.2500000000000003
 40
0.3125000000000003
 40
0.3125000000000003
 40
0.3750000000000003
 40
0.3750000000000003
 40
0.4062500000000004
 40
0.4062500000000004
 40
0.4375000000000004
 40
0.4375000000000004
 40
0.5000000000000004
 40
0.5000000000000004
 40
0.5625000000000004
 40
0.5625000000000004
 40
0.6250000000000006
 40
0.6250000000000006
 40
0.6562500000000004
 40
0.6562500000000004
 40
0.6875000000000004
 40
0.6875000000000004
 40
0.7500000000000003
 40
0.7500000000000003
 40
0.8125000000000003
 40
0.8125000000000003
 40
0.8750000000000002
 40
0.8750000000000002
 40
0.9375000000000002
 40
0.9375000000000002
 40
1.0
 40
1.0
 40
1.0
 40
1.0
 10
6541.802259085512
 20
5018.699454592719
 30
0.0
 10
6541.802259085512
 20
5019.064344827773
 30
0.0
 10
6541.838208600152
 20
5019.422828948485
 30
0.0
 10
6541.943632549331
 20
5019.951413532549
 30
0.0
 10
6541.987422280344
 20
5020.126073896878
 30
0.0
 10
6542.092667765603
 20
5020.472274714472
 30
0.0
 10
6542.154304791053
 20
5020.64393301889
 30
0.0
 10
6542.361639347861
 20
5021.142812052989
 30
0.0
 10
6542.5305864165
 20
5021.45806147932
 30
0.0
 10
6542.929484943888
 20
5022.054692039063
 30
0.0
 10
6543.160615782832
 20
5022.335976777416
 30
0.0
 10
6543.665587561997
 20
5022.840966765402
 30
0.0
 10
6543.941410606683
 20
5023.068126868991
 30
0.0
 10
6544.541938836102
 20
5023.470327895985
 30
0.0
 10
6544.85961458356
 20
5023.640266669414
 30
0.0
 10
6545.355385252798
 20
5023.846465017667
 30
0.0
 10
6545.524207255672
 20
5023.907242480205
 30
0.0
 10
6545.869179427324
 20
5024.012533331447
 30
0.0
 10
6546.046384205612
 20
5024.05721450381
 30
0.0
 10
6546.579269494679
 20
5024.163751250752
 30
0.0
 10
6546.937055659239
 20
5024.199129988741
 30
0.0
 10
6547.657619050549
 20
5024.199774792436
 30
0.0
 10
6548.023703814977
 20
5024.163817869258
 30
0.0
 10
6548.730229111918
 20
5024.023048314947
 30
0.0
 10
6549.073809610266
 20
5023.918863435963
 30
0.0
 10
6549.574636221764
 20
5023.711336188917
 30
0.0
 10
6549.739196749118
 20
5023.633385856315
 30
0.0
 10
6550.056310094875
 20
5023.463648745775
 30
0.0
 10
6550.209810610918
 20
5023.371507201696
 30
0.0
 10
6550.655514392553
 20
5023.073629333348
 30
0.0
 10
6550.934934511857
 20
5022.844740549337
 30
0.0
 10
6551.444512125565
 20
5022.335588001641
 30
0.0
 10
6551.671091203519
 20
5022.059690598374
 30
0.0
 10
6552.069426156548
 20
5021.465679132748
 30
0.0
 10
6552.242344116743
 20
5021.143762377053
 30
0.0
 10
6552.518346757104
 20
5020.480327991534
 30
0.0
 10
6552.623172314627
 20
5020.137603700588
 30
0.0
 10
6552.765527925908
 20
5019.429580626902
 30
0.0
 10
6552.802259085512
 20
5019.064354942547
 30
0.0
 10
6552.802259085512
 20
5018.699454592719
 30
0.0
  0
LINE
  5
183
330
1F
100
AcDbEntity
  8
0
  6
Continuous
 62
     7
370
    25
100
AcDbLine
 10
6541.8022590855
 20
5001.6994545927
 30
0.0
 11
6541.8022590855
 21
5018.6994545927
 31
0.0
  0
SPLINE
  5
184
330
1F
100
AcDbEntity
  8
0
  6
Continuous
 62
     7
370
    25
100
AcDbSpline
210
0.0
220
0.0
230
1.0
 70
     8
 71
     3
 72
    44
 73
    40
 74
     0
 42
0.00000001
 43
0.00000001
 40
0.0
 40
0.0
 40
0.0
 40
0.0
 40
0.0624999999999999
 40
0.0624999999999999
 40
0.0937499999999999
 40
0.0937499999999999
 40
0.1249999999999998
 40
0.1249999999999998
 40
0.1874999999999993
 40
0.1874999999999993
 40
0.2499999999999987
 40
0.2499999999999987
 40
0.3124999999999986
 40
0.3124999999999986
 40
0.3749999999999984
 40
0.3749999999999984
 40
0.4062499999999983
 40
0.4062499999999983
 40
0.4374999999999982
 40
0.4374999999999982
 40
0.4999999999999983
 40
0.4999999999999983
 40
0.5624999999999983
 40
0.5624999999999983
 40
0.6249999999999986
 40
0.6249999999999986
 40
0.6562499999999987
 40
0.6562499999999987
 40
0.6874999999999989
 40
0.6874999999999989
 40
0.7499999999999994
 40
0.7499999999999994
 40
0.8124999999999996
 40
0.8124999999999996
 40
0.8749999999999997
 40
0.8749999999999997
 40
0.9374999999999999
 40
0.9374999999999999
 40
1.0
 40
1.0
 40
1.0
 40
1.0
 10
6552.802259085512
 20
5001.699454592719
 30
0.0
 10
6552.802259085512
 20
5001.334564357665
 30
0.0
 10
6552.766309570872
 20
5000.976080236953
 30
0.0
 10
6552.660885621693
 20
5000.447495652888
 30
0.0
 10
6552.61709589068
 20
5000.272835288561
 30
0.0
 10
6552.511850405422
 20
4999.926634470966
 30
0.0
 10
6552.450213379971
 20
4999.754976166549
 30
0.0
 10
6552.242878823163
 20
4999.256097132449
 30
0.0
 10
6552.073931754523
 20
4998.940847706118
 30
0.0
 10
6551.675033227135
 20
4998.344217146376
 30
0.0
 10
6551.443902388192
 20
4998.062932408022
 30
0.0
 10
6550.938930609027
 20
4997.557942420036
 30
0.0
 10
6550.663107564341
 20
4997.330782316447
 30
0.0
 10
6550.062579334921
 20
4996.928581289453
 30
0.0
 10
6549.744903587464
 20
4996.758642516024
 30
0.0
 10
6549.249132918227
 20
4996.552444167772
 30
0.0
 10
6549.080310915352
 20
4996.491666705233
 30
0.0
 10
6548.735338743702
 20
4996.386375853991
 30
0.0
 10
6548.558133965411
 20
4996.341694681628
 30
0.0
 10
6548.025248676346
 20
4996.235157934686
 30
0.0
 10
6547.667462511784
 20
4996.199779196697
 30
0.0
 10
6546.946899120475
 20
4996.199134393002
 30
0.0
 10
6546.580814356046
 20
4996.23509131618
 30
0.0
 10
6545.874289059106
 20
4996.375860870491
 30
0.0
 10
6545.530708560758
 20
4996.480045749476
 30
0.0
 10
6545.02988194926
 20
4996.687572996521
 30
0.0
 10
6544.865321421907
 20
4996.765523329123
 30
0.0
 10
6544.548208076149
 20
4996.935260439664
 30
0.0
 10
6544.394707560106
 20
4997.027401983742
 30
0.0
 10
6543.949003778473
 20
4997.325279852091
 30
0.0
 10
6543.669583659167
 20
4997.5541686361
 30
0.0
 10
6543.160006045458
 20
4998.063321183798
 30
0.0
 10
6542.933426967506
 20
4998.339218587064
 30
0.0
 10
6542.535092014476
 20
4998.93323005269
 30
0.0
 10
6542.362174054281
 20
4999.255146808386
 30
0.0
 10
6542.08617141392
 20
4999.918581193904
 30
0.0
 10
6541.981345856397
 20
5000.261305484851
 30
0.0
 10
6541.838990245116
 20
5000.969328558536
 30
0.0
 10
6541.802259085512
 20
5001.334554242891
 30
0.0
 10
6541.802259085512
 20
5001.699454592719
 30
0.0
  0
LINE
  5
185
330
1F
100
AcDbEntity
  8
0
  6
Continuous
 62
     7
370
    25
100
AcDbLine
 10
6552.8022590855
 20
5018.6994545927
 30
0.0
 11
6552.8022590855
 21
5001.6994545927
 31
0.0
  0
LINE
  5
186
330
1F
100
AcDbEntity
  8
0
  6
Continuous
 62
     7
370
    25
100
AcDbLine
 10
6568.8522590855
 20
5028.6994545927
 30
0.0
 11
6525.7522590855
 21
5028.6994545927
 31
0.0
  0
LINE
  5
187
330
1F
100
AcDbEntity
  8
0
  6
Continuous
 62
     7
370
    25
100
AcDbLine
 10
6522.5522590855
 20
4972.1994545927
 30
0.0
 11
6572.0522590855
 21
4972.1994545927
 31
0.0
  0
LINE
  5
188
330
1F
100
AcDbEntity
  8
0
  6
Continuous
 62
     7
370
    25
100
AcDbLine
 10
6522.5522590855
 20
4978.1994545927
 30
0.0
 11
6572.0522590855
 21
4978.1994545927
 31
0.0
  0
LINE
  5
189
330
1F
100
AcDbEntity
  8
0
  6
Continuous
 62
     7
370
    25
100
AcDbLine
 10
6568.8022590855
 20
5029.1994545927
 30
0.0
 11
6525.8022590855
 21
5029.1994545927
 31
0.0
  0
LINE
  5
18A
330
1F
100
AcDbEntity
  8
0
  6
Continuous
 62
     7
370
    25
100
AcDbLine
 10
6568.8022590855
 20
5032.1994545927
 30
0.0
 11
6525.8022590855
 21
5032.1994545927
 31
0.0
  0
LINE
  5
18B
330
1F
100
AcDbEntity
  8
0
  6
Continuous
 62
     7
370
    25
100
AcDbLine
 10
6569.0522590855
 20
5141.6994545927
 30
0.0
 11
6525.5522590855
 21
5141.6994545927
 31
0.0
  0
LINE
  5
18C
330
1F
100
AcDbEntity
  8
0
  6
Continuous
 62
     7
370
    25
100
AcDbLine
 10
6569.0522590855
 20
5032.6994545927
 30
0.0
 11
6525.5522590855
 21
5032.6994545927
 31
0.0
  0
LINE
  5
18D
330
1F
100
AcDbEntity
  8
0
  6
Continuous
 62
     7
370
    25
100
AcDbLine
 10
6535.3022590855
 20
5142.1994545927
 30
0.0
 11
6559.3022590855
 21
5142.1994545927
 31
0.0
  0
LINE
  5
18E
330
1F
100
AcDbEntity
  8
0
  6
Continuous
 62
     7
370
    25
100
AcDbLine
 10
6780.9836730264
 20
5315.5151027402
 30
0.0
 11
6757.0750002722
 21
5313.4233649143
 31
0.0
  0
LINE
  5
18F
330
1F
100
AcDbEntity
  8
0
  6
Continuous
 62
     7
370
    25
100
AcDbLine
 10
6781.0272508978
 20
5315.0170053912
 30
0.0
 11
6757.1185781436
 21
5312.9252675653
 31
0.0
  0
LINE
  5
190
330
1F
100
AcDbEntity
  8
0
  6
Continuous
 62
     7
370
    25
100
AcDbLine
 10
6786.2565954626
 20
5255.2453235057
 30
0.0
 11
6762.3479227084
 21
5253.1535856797
 31
0.0
  0
LINE
  5
191
330
1F
100
AcDbEntity
  8
0
  6
Continuous
 62
     7
370
    25
100
AcDbLine
 10
6764.6017793328
 20
5250.339313071
 30
0.0
 11
6784.5256732947
 21
5252.0824279259
 31
0.0
  0
LINE
  5
192
330
1F
100
AcDbEntity
  8
0
  6
Continuous
 62
     8
370
    25
100
AcDbLine
 10
6535.3022590855
 20
5333.3725909236
 30
0.0
 11
6559.3022590855
 21
5333.3725909236
 31
0.0
  0
LINE
  5
193
330
1F
100
AcDbEntity
  8
0
  6
Continuous
 62
     8
370
    25
100
AcDbLine
 10
6778.4923984269
 20
5343.9905017133
 30
0.0
 11
6754.5837256727
 21
5341.8987638874
 31
0.0
  0
LINE
  5
194
330
1F
100
AcDbEntity
  8
0
  6
Continuous
 62
     7
370
    25
100
AcDbLine
 10
6256.0187553361
 20
4731.8291322868
 30
0.0
 11
6294.7687553361
 21
4731.8291322868
 31
0.0
  0
LINE
  5
195
330
1F
100
AcDbEntity
  8
0
  6
Continuous
 62
     7
370
    25
100
AcDbLine
 10
6294.7687553361
 20
4775.3291322868
 30
0.0
 11
6244.0187553361
 21
4775.3291322868
 31
0.0
  0
LINE
  5
196
330
1F
100
AcDbEntity
  8
0
  6
Continuous
 62
     7
370
    25
100
AcDbLine
 10
6294.7687553361
 20
4731.9291322868
 30
0.0
 11
6296.7687553361
 21
4731.9291322868
 31
0.0
  0
LINE
  5
197
330
1F
100
AcDbEntity
  8
0
  6
Continuous
 62
     7
370
    25
100
AcDbLine
 10
6296.7687553361
 20
4775.2291322868
 30
0.0
 11
6294.7687553361
 21
4775.2291322868
 31
0.0
  0
LWPOLYLINE
  5
198
330
1F
100
AcDbEntity
  8
0
  6
Continuous
 62
     7
370
    25
100
AcDbPolyline
 90
        3
 70
   128
 43
0.0
 10
6296.7687553361
 20
4733.7291322868
 10
6299.4716633207
 20
4733.914016258
 10
6299.7687553361
 20
4733.9571420717
  0
LWPOLYLINE
  5
199
330
1F
100
AcDbEntity
  8
0
  6
Continuous
 62
     7
370
    25
100
AcDbPolyline
 90
        3
 70
   128
 43
0.0
 10
6299.7687553361
 20
4773.2011225018
 10
6299.4716633207
 20
4773.2442483156
 10
6296.7687553361
 20
4773.4291322868
  0
LINE
  5
19A
330
1F
100
AcDbEntity
  8
0
  6
Continuous
 62
     7
370
    25
100
AcDbLine
 10
6232.0187553361
 20
4753.5791322868
 30
0.0
 11
6232.0187553361
 21
4534.3433293225
 31
0.0
  0
LINE
  5
19B
330
1F
100
AcDbEntity
  8
0
  6
Continuous
 62
     7
370
    25
100
AcDbLine
 10
6256.0187553361
 20
4534.3433293225
 30
0.0
 11
6256.0187553361
 21
4753.5791322868
 31
0.0
  0
LINE
  5
19C
330
1F
100
AcDbEntity
  8
0
  6
Continuous
 62
     7
370
    25
100
AcDbLine
 10
6256.0187553361
 20
4531.852054723
 30
0.0
 11
6256.0187553361
 21
4534.3433293225
 31
0.0
  0
LINE
  5
19D
330
1F
100
AcDbEntity
  8
0
  6
Continuous
 62
     7
370
    25
100
AcDbLine
 10
6232.0187553361
 20
4534.3433293225
 30
0.0
 11
6232.0187553361
 21
4531.852054723
 31
0.0
  0
LINE
  5
19E
330
1F
100
AcDbEntity
  8
0
  6
Continuous
 62
     7
370
    25
100
AcDbLine
 10
6256.0187553361
 20
4526.5791322868
 30
0.0
 11
6256.0187553361
 21
4531.8084768516
 31
0.0
  0
LINE
  5
19F
330
1F
100
AcDbEntity
  8
0
  6
Continuous
 62
     7
370
    25
100
AcDbLine
 10
6232.0187553361
 20
4531.8084768516
 30
0.0
 11
6232.0187553361
 21
4526.5791322868
 31
0.0
  0
LINE
  5
1A0
330
1F
100
AcDbEntity
  8
0
  6
Continuous
 62
     7
370
    25
100
AcDbLine
 10
6299.7687553361
 20
4731.8291322868
 30
0.0
 11
6328.7687553361
 21
4731.8291322868
 31
0.0
  0
LINE
  5
1A1
330
1F
100
AcDbEntity
  8
0
  6
Continuous
 62
     7
370
    25
100
AcDbLine
 10
6328.7687553361
 20
4775.3291322868
 30
0.0
 11
6299.7687553361
 21
4775.3291322868
 31
0.0
  0
ARC
  5
1A2
330
1F
100
AcDbEntity
  8
0
  6
Continuous
 62
     7
370
    25
100
AcDbCircle
 10
6223.0027572077
 20
4748.6260004867
 30
0.0
 40
0.4999999999998926
100
AcDbArc
 50
191.1620300276
 51
265.4441269064
  0
SPLINE
  5
1A3
330
1F
100
AcDbEntity
  8
0
  6
Continuous
 62
     7
370
    25
100
AcDbSpline
210
0.0
220
0.0
230
1.0
 70
     8
 71
     3
 72
    17
 73
    13
 74
     0
 42
0.00000001
 43
0.00000001
 40
0.0
 40
0.0
 40
0.0
 40
0.0
 40
0.1047690771135598
 40
0.2099120865528604
 40
0.3170650947197424
 40
0.4258710646877851
 40
0.5337878432751582
 40
0.6402096518798956
 40
0.7467367396706376
 40
0.8541968252146319
 40
0.9611064844154279
 40
1.0
 40
1.0
 40
1.0
 40
1.0
 10
6222.512215378034
 20
4748.529208372349
 30
0.0
 10
6222.501091002698
 20
4748.583997853741
 30
0.0
 10
6222.478802547911
 20
4748.693772366194
 30
0.0
 10
6222.324840236586
 20
4749.546105956611
 30
0.0
 10
6222.152871981174
 20
4750.807264991449
 30
0.0
 10
6222.027110408045
 20
4752.397804975708
 30
0.0
 10
6222.005635849513
 20
4754.113433491182
 30
0.0
 10
6222.094427818677
 20
4755.757235329956
 30
0.0
 10
6222.256445538266
 20
4757.164597198065
 30
0.0
 10
6222.423748416248
 20
4758.179325534953
 30
0.0
 10
6222.50490322273
 20
4758.591821440443
 30
0.0
 10
6222.510675580944
 20
4758.621215287853
 30
0.0
 10
6222.512215378034
 20
4758.629056201223
 30
0.0
  0
ARC
  5
1A4
330
1F
100
AcDbEntity
  8
0
  6
Continuous
 62
     7
370
    25
100
AcDbCircle
 10
6223.0027572077
 20
4758.5322640869
 30
0.0
 40
0.5000000000007992
100
AcDbArc
 50
94.5558730936
 51
168.8379699722
  0
ARC
  5
1A5
330
1F
100
AcDbEntity
  8
0
  6
Continuous
 62
     7
370
    25
100
AcDbCircle
 10
6244.0187553361
 20
4753.5791322868
 30
0.0
 40
24.75000000000015
100
AcDbArc
 50
61.4964898829
 51
240.9974539733
  0
ARC
  5
1A6
330
1F
100
AcDbEntity
  8
0
  6
Continuous
 62
     7
370
    25
100
AcDbCircle
 10
6244.0187553361
 20
4753.5791322868
 30
0.0
 40
21.75
100
AcDbArc
 50
303.485376623
 51
90.0
  0
ARC
  5
1A7
330
1F
100
AcDbEntity
  8
0
  6
Continuous
 62
     7
370
    25
100
AcDbCircle
 10
6244.0187553361
 20
4753.5791322868
 30
0.0
 40
21.75
100
AcDbArc
 50
90.0
 51
236.514623377
  0
LINE
  5
1A8
330
1F
100
AcDbEntity
  8
0
  6
Continuous
 62
     7
370
    25
100
AcDbLine
 10
6294.7687553361
 20
4731.8291322868
 30
0.0
 11
6294.7687553361
 21
4775.3291322868
 31
0.0
  0
LINE
  5
1A9
330
1F
100
AcDbEntity
  8
0
  6
Continuous
 62
     7
370
    25
100
AcDbLine
 10
6296.7687553361
 20
4731.9291322868
 30
0.0
 11
6296.7687553361
 21
4775.2291322868
 31
0.0
  0
ARC
  5
1AA
330
1F
100
AcDbEntity
  8
0
  6
Continuous
 62
     7
370
    25
100
AcDbCircle
 10
6244.0187553361
 20
4753.5791322868
 30
0.0
 40
12.0
100
AcDbArc
 50
0.0
 51
180.0
  0
ARC
  5
1AB
330
1F
100
AcDbEntity
  8
0
  6
Continuous
 62
     7
370
    25
100
AcDbCircle
 10
6244.0187553361
 20
4531.8863808468
 30
0.0
 40
12.00004909501508
100
AcDbArc
 50
180.1638947212
 51
359.8361052788
  0
LWPOLYLINE
  5
1AC
330
1F
100
AcDbEntity
  8
0
  6
Continuous
 62
     7
370
    25
100
AcDbPolyline
 90
       20
 70
   128
 43
0.0
 10
6256.0187553361
 20
4531.8084768516
 10
6255.8364483722
 20
4529.7326281245
 10
6255.2950667855
 20
4527.7198530106
 10
6254.4110601815
 20
4525.8313086631
 10
6253.2112886535
 20
4524.1243775464
 10
6251.7322066523
 20
4522.6509238988
 10
6250.0187553361
 20
4521.4557178637
 10
6248.122997056
 20
4520.5750751717
 10
6246.1025334681
 20
4520.0357537054
 10
6244.0187553361
 20
4519.8541404745
 10
6241.9349772041
 20
4520.0357537054
 10
6239.9145136162
 20
4520.5750751717
 10
6238.0187553361
 20
4521.4557178637
 10
6236.3053040199
 20
4522.6509238988
 10
6234.8262220187
 20
4524.1243775464
 10
6233.6264504907
 20
4525.8313086631
 10
6232.7424438867
 20
4527.7198530106
 10
6232.2010623
 20
4529.7326281245
 10
6232.0187553361
 20
4531.8084768516
 10
6232.0187553361
 20
4531.8084768516
  0
ARC
  5
1AD
330
1F
100
AcDbEntity
  8
0
  6
Continuous
 62
     7
370
    25
100
AcDbCircle
 10
6244.0187553361
 20
4526.6139879463
 30
0.0
 40
12.000050621435
100
AcDbArc
 50
180.1664230473
 51
359.8335769527
  0
CIRCLE
  5
1AE
330
1F
100
AcDbEntity
  8
0
  6
Continuous
 62
     7
370
    25
100
AcDbCircle
 10
6315.7687553361
 20
4753.5791322868
 30
0.0
 40
5.0
  0
LINE
  5
1AF
330
1F
100
AcDbEntity
  8
0
  6
Continuous
 62
     7
370
    25
100
AcDbLine
 10
6299.7687553361
 20
4731.8291322868
 30
0.0
 11
6299.7687553361
 21
4775.3291322868
 31
0.0
  0
LINE
  5
1B0
330
1F
100
AcDbEntity
  8
0
  6
Continuous
 62
     7
370
    25
100
AcDbLine
 10
6328.7687553361
 20
4731.8291322868
 30
0.0
 11
6328.7687553361
 21
4775.3291322868
 31
0.0
  0
ARC
  5
1B1
330
1F
100
AcDbEntity
  8
0
  6
Continuous
 62
     8
370
    25
100
AcDbCircle
 10
6244.0187553361
 20
4534.3781849821
 30
0.0
 40
12.00005062143501
100
AcDbArc
 50
180.1664230473
 51
359.8335769527
  0
ENDSEC
  0
SECTION
  2
OBJECTS
  0
DICTIONARY
  5
C
330
0
100
AcDbDictionary
281
     1
  3
ACAD_GROUP
350
D
  3
ACAD_LAYOUT
350
1A
  3
ACAD_MLINESTYLE
350
17
  3
ACAD_PLOTSETTINGS
350
19
  3
ACAD_PLOTSTYLENAME
350
E
  3
ACAD_SCALELIST
350
47
  3
DWGPROPS
350
1B2
  0
DICTIONARY
  5
D
102
{ACAD_REACTORS
330
C
102
}
330
C
100
AcDbDictionary
281
     1
  0
DICTIONARY
  5
1A
102
{ACAD_REACTORS
330
C
102
}
330
C
100
AcDbDictionary
281
     1
  3
Layout1
350
1E
  3
Layout2
350
26
  3
Model
350
22
  0
DICTIONARY
  5
17
102
{ACAD_REACTORS
330
C
102
}
330
C
100
AcDbDictionary
281
     1
  3
Standard
350
18
  0
DICTIONARY
  5
19
102
{ACAD_REACTORS
330
C
102
}
330
C
100
AcDbDictionary
281
     1
  0
ACDBDICTIONARYWDFLT
  5
E
102
{ACAD_REACTORS
330
C
102
}
330
C
100
AcDbDictionary
281
     1
  3
Normal
350
F
100
AcDbDictionaryWithDefault
340
F
  0
DICTIONARY
  5
47
102
{ACAD_REACTORS
330
C
102
}
330
C
100
AcDbDictionary
281
     1
  3
A0
350
48
  3
A1
350
49
  3
A2
350
4A
  3
A3
350
4B
  3
A4
350
4C
  3
A5
350
4D
  3
A6
350
4E
  3
A7
350
4F
  3
A8
350
50
  3
A9
350
51
  3
B0
350
52
  3
B1
350
53
  3
B2
350
54
  3
B3
350
55
  3
B4
350
56
  3
B5
350
57
  3
B6
350
58
  3
B7
350
59
  3
B8
350
5A
  3
B9
350
5B
  3
C0
350
5C
  3
C1
350
5D
  3
C2
350
5E
  3
C3
350
5F
  3
C4
350
60
  3
C5
350
61
  3
C6
350
62
  3
C7
350
63
  3
C8
350
64
  3
C9
350
65
  3
D0
350
66
  3
D1
350
67
  3
D2
350
68
  0
XRECORD
  5
1B2
102
{ACAD_REACTORS
330
C
102
}
330
C
100
AcDbXrecord
280
     1
  1
DWGPROPS COOKIE
  2

  3

  4

  6

  7

  8
radek.stransky
  9

300
=
301
=
302
=
303
=
304
=
305
=
306
=
307
=
308
=
309
=
 40
0.0
 41
2460438.402015127
 42
2460438.402015613
  1

 90
        0
  0
LAYOUT
  5
1E
102
{ACAD_REACTORS
330
1A
102
}
330
1A
100
AcDbPlotSettings
  1

  2
none_device
  4

  6

 40
0.0
 41
0.0
 42
0.0
 43
0.0
 44
0.0
 45
0.0
 46
0.0
 47
0.0
 48
0.0
 49
0.0
140
0.0
141
0.0
142
1.0
143
1.0
 70
   688
 72
     1
 73
     0
 74
     5
  7

 75
    16
147
1.0
148
0.0
149
0.0
100
AcDbLayout
  1
Layout1
 70
     1
 71
     1
 10
0.0
 20
0.0
 11
420.0
 21
297.0
 12
0.0
 22
0.0
 32
0.0
 14
1.0000000000E+20
 24
1.0000000000E+20
 34
1.0000000000E+20
 15
-1.0000000000E+20
 25
-1.0000000000E+20
 35
-1.0000000000E+20
146
0.0
 13
0.0
 23
0.0
 33
0.0
 16
1.0
 26
0.0
 36
0.0
 17
0.0
 27
1.0
 37
0.0
 76
     0
330
1B
  0
LAYOUT
  5
26
102
{ACAD_REACTORS
330
1A
102
}
330
1A
100
AcDbPlotSettings
  1

  2
none_device
  4

  6

 40
0.0
 41
0.0
 42
0.0
 43
0.0
 44
0.0
 45
0.0
 46
0.0
 47
0.0
 48
0.0
 49
0.0
140
0.0
141
0.0
142
1.0
143
1.0
 70
   688
 72
     1
 73
     0
 74
     5
  7

 75
    16
147
1.0
148
0.0
149
0.0
100
AcDbLayout
  1
Layout2
 70
     1
 71
     2
 10
0.0
 20
0.0
 11
0.0
 21
0.0
 12
0.0
 22
0.0
 32
0.0
 14
0.0
 24
0.0
 34
0.0
 15
0.0
 25
0.0
 35
0.0
146
0.0
 13
0.0
 23
0.0
 33
0.0
 16
1.0
 26
0.0
 36
0.0
 17
0.0
 27
1.0
 37
0.0
 76
     0
330
23
  0
LAYOUT
  5
22
102
{ACAD_REACTORS
330
1A
102
}
330
1A
100
AcDbPlotSettings
  1

  2
none_device
  4
Letter_(8.50_x_11.00_Inches)
  6

 40
6.35
 41
6.35
 42
6.35000508
 43
6.35000508
 44
215.9
 45
279.4
 46
0.0
 47
0.0
 48
0.0
 49
0.0
140
0.0
141
0.0
142
1.0
143
1.0
 70
  1712
 72
     1
 73
     0
 74
     0
  7

 75
     0
147
1.0
148
0.0
149
0.0
100
AcDbLayout
  1
Model
 70
     1
 71
     0
 10
0.0
 20
0.0
 11
20000.0
 21
10000.0
 12
0.0
 22
0.0
 32
0.0
 14
0.0
 24
0.0
 34
0.0
 15
20000.0
 25
10000.0
 35
0.0
146
0.0
 13
0.0
 23
0.0
 33
0.0
 16
1.0
 26
0.0
 36
0.0
 17
0.0
 27
1.0
 37
0.0
 76
     0
330
1F
331
29
  0
MLINESTYLE
  5
18
102
{ACAD_REACTORS
330
17
102
}
330
17
100
AcDbMlineStyle
  2
Standard
 70
     0
  3

 62
   256
 51
90.0
 52
90.0
 71
     2
 49
0.5
 62
   256
  6
BYLAYER
 49
-0.5
 62
   256
  6
BYLAYER
  0
ACDBPLACEHOLDER
  5
F
102
{ACAD_REACTORS
330
E
102
}
330
E
  0
SCALE
  5
48
102
{ACAD_REACTORS
330
47
102
}
330
47
100
AcDbScale
 70
     0
300
1:1
140
1.0
141
1.0
290
     1
  0
SCALE
  5
49
102
{ACAD_REACTORS
330
47
102
}
330
47
100
AcDbScale
 70
     0
300
1:2
140
1.0
141
2.0
290
     0
  0
SCALE
  5
4A
102
{ACAD_REACTORS
330
47
102
}
330
47
100
AcDbScale
 70
     0
300
1:4
140
1.0
141
4.0
290
     0
  0
SCALE
  5
4B
102
{ACAD_REACTORS
330
47
102
}
330
47
100
AcDbScale
 70
     0
300
1:5
140
1.0
141
5.0
290
     0
  0
SCALE
  5
4C
102
{ACAD_REACTORS
330
47
102
}
330
47
100
AcDbScale
 70
     0
300
1:8
140
1.0
141
8.0
290
     0
  0
SCALE
  5
4D
102
{ACAD_REACTORS
330
47
102
}
330
47
100
AcDbScale
 70
     0
300
1:10
140
1.0
141
10.0
290
     0
  0
SCALE
  5
4E
102
{ACAD_REACTORS
330
47
102
}
330
47
100
AcDbScale
 70
     0
300
1:16
140
1.0
141
16.0
290
     0
  0
SCALE
  5
4F
102
{ACAD_REACTORS
330
47
102
}
330
47
100
AcDbScale
 70
     0
300
1:20
140
1.0
141
20.0
290
     0
  0
SCALE
  5
50
102
{ACAD_REACTORS
330
47
102
}
330
47
100
AcDbScale
 70
     0
300
1:30
140
1.0
141
30.0
290
     0
  0
SCALE
  5
51
102
{ACAD_REACTORS
330
47
102
}
330
47
100
AcDbScale
 70
     0
300
1:40
140
1.0
141
40.0
290
     0
  0
SCALE
  5
52
102
{ACAD_REACTORS
330
47
102
}
330
47
100
AcDbScale
 70
     0
300
1:50
140
1.0
141
50.0
290
     0
  0
SCALE
  5
53
102
{ACAD_REACTORS
330
47
102
}
330
47
100
AcDbScale
 70
     0
300
1:100
140
1.0
141
100.0
290
     0
  0
SCALE
  5
54
102
{ACAD_REACTORS
330
47
102
}
330
47
100
AcDbScale
 70
     0
300
2:1
140
2.0
141
1.0
290
     0
  0
SCALE
  5
55
102
{ACAD_REACTORS
330
47
102
}
330
47
100
AcDbScale
 70
     0
300
4:1
140
4.0
141
1.0
290
     0
  0
SCALE
  5
56
102
{ACAD_REACTORS
330
47
102
}
330
47
100
AcDbScale
 70
     0
300
8:1
140
8.0
141
1.0
290
     0
  0
SCALE
  5
57
102
{ACAD_REACTORS
330
47
102
}
330
47
100
AcDbScale
 70
     0
300
10:1
140
10.0
141
1.0
290
     0
  0
SCALE
  5
58
102
{ACAD_REACTORS
330
47
102
}
330
47
100
AcDbScale
 70
     0
300
100:1
140
100.0
141
1.0
290
     0
  0
SCALE
  5
59
102
{ACAD_REACTORS
330
47
102
}
330
47
100
AcDbScale
 70
     0
300
1/128" = 1'-0"
140
0.0078125
141
12.0
290
     0
  0
SCALE
  5
5A
102
{ACAD_REACTORS
330
47
102
}
330
47
100
AcDbScale
 70
     0
300
1/64" = 1'-0"
140
0.015625
141
12.0
290
     0
  0
SCALE
  5
5B
102
{ACAD_REACTORS
330
47
102
}
330
47
100
AcDbScale
 70
     0
300
1/32" = 1'-0"
140
0.03125
141
12.0
290
     0
  0
SCALE
  5
5C
102
{ACAD_REACTORS
330
47
102
}
330
47
100
AcDbScale
 70
     0
300
1/16" = 1'-0"
140
0.0625
141
12.0
290
     0
  0
SCALE
  5
5D
102
{ACAD_REACTORS
330
47
102
}
330
47
100
AcDbScale
 70
     0
300
3/32" = 1'-0"
140
0.09375
141
12.0
290
     0
  0
SCALE
  5
5E
102
{ACAD_REACTORS
330
47
102
}
330
47
100
AcDbScale
 70
     0
300
1/8" = 1'-0"
140
0.125
141
12.0
290
     0
  0
SCALE
  5
5F
102
{ACAD_REACTORS
330
47
102
}
330
47
100
AcDbScale
 70
     0
300
3/16" = 1'-0"
140
0.1875
141
12.0
290
     0
  0
SCALE
  5
60
102
{ACAD_REACTORS
330
47
102
}
330
47
100
AcDbScale
 70
     0
300
1/4" = 1'-0"
140
0.25
141
12.0
290
     0
  0
SCALE
  5
61
102
{ACAD_REACTORS
330
47
102
}
330
47
100
AcDbScale
 70
     0
300
3/8" = 1'-0"
140
0.375
141
12.0
290
     0
  0
SCALE
  5
62
102
{ACAD_REACTORS
330
47
102
}
330
47
100
AcDbScale
 70
     0
300
1/2" = 1'-0"
140
0.5
141
12.0
290
     0
  0
SCALE
  5
63
102
{ACAD_REACTORS
330
47
102
}
330
47
100
AcDbScale
 70
     0
300
3/4" = 1'-0"
140
0.75
141
12.0
290
     0
  0
SCALE
  5
64
102
{ACAD_REACTORS
330
47
102
}
330
47
100
AcDbScale
 70
     0
300
1" = 1'-0"
140
1.0
141
12.0
290
     0
  0
SCALE
  5
65
102
{ACAD_REACTORS
330
47
102
}
330
47
100
AcDbScale
 70
     0
300
1-1/2" = 1'-0"
140
1.5
141
12.0
290
     0
  0
SCALE
  5
66
102
{ACAD_REACTORS
330
47
102
}
330
47
100
AcDbScale
 70
     0
300
3" = 1'-0"
140
3.0
141
12.0
290
     0
  0
SCALE
  5
67
102
{ACAD_REACTORS
330
47
102
}
330
47
100
AcDbScale
 70
     0
300
6" = 1'-0"
140
6.0
141
12.0
290
     0
  0
SCALE
  5
68
102
{ACAD_REACTORS
330
47
102
}
330
47
100
AcDbScale
 70
     0
300
1'-0" = 1'-0"
140
12.0
141
12.0
290
     0
  0
ENDSEC
  0
EOF
