  0
SECTION
  2
HEADER
  9
$ACADVER
  1
AC1015
  9
$ACADMAINTVER
 70
     6
  9
$DWGCODEPAGE
  3
ANSI_1250
  9
$INSBASE
 10
0.0
 20
0.0
 30
0.0
  9
$EXTMIN
 10
0.0
 20
0.0
 30
0.0
  9
$EXTMAX
 10
20000.0
 20
10000.0
 30
0.0
  9
$LIMMIN
 10
0.0
 20
0.0
  9
$LIMMAX
 10
20000.0
 20
10000.0
  9
$ORTHOMODE
 70
     0
  9
$REGENMODE
 70
     1
  9
$FILLMODE
 70
     1
  9
$QTEXTMODE
 70
     0
  9
$MIRRTEXT
 70
     1
  9
$LTSCALE
 40
1.0
  9
$ATTMODE
 70
     1
  9
$TEXTSIZE
 40
2.0
  9
$TRACEWID
 40
1.0
  9
$TEXTSTYLE
  7
STANDARD
  9
$CLAYER
  8
0
  9
$CELTYPE
  6
ByLayer
  9
$CECOLOR
 62
   256
  9
$CELTSCALE
 40
1.0
  9
$DISPSILH
 70
     0
  9
$DIMSCALE
 40
1.0
  9
$DIMASZ
 40
2.0
  9
$DIMEXO
 40
1.0
  9
$DIMDLI
 40
3.75
  9
$DIMRND
 40
0.0
  9
$DIMDLE
 40
0.0
  9
$DIMEXE
 40
1.0
  9
$DIMTP
 40
0.0
  9
$DIMTM
 40
0.0
  9
$DIMTXT
 40
2.0
  9
$DIMCEN
 40
2.5
  9
$DIMTSZ
 40
0.0
  9
$DIMTOL
 70
     0
  9
$DIMLIM
 70
     0
  9
$DIMTIH
 70
     1
  9
$DIMTOH
 70
     1
  9
$DIMSE1
 70
     0
  9
$DIMSE2
 70
     0
  9
$DIMTAD
 70
     1
  9
$DIMZIN
 70
     0
  9
$DIMBLK
  1

  9
$DIMASO
 70
     1
  9
$DIMSHO
 70
     1
  9
$DIMPOST
  1

  9
$DIMAPOST
  1

  9
$DIMALT
 70
     0
  9
$DIMALTD
 70
     3
  9
$DIMALTF
 40
0.0393700787
  9
$DIMLFAC
 40
1.0
  9
$DIMTOFL
 70
     1
  9
$DIMTVP
 40
0.0
  9
$DIMTIX
 70
     0
  9
$DIMSOXD
 70
     0
  9
$DIMSAH
 70
     0
  9
$DIMBLK1
  1

  9
$DIMBLK2
  1

  9
$DIMSTYLE
  2
ISO-25
  9
$DIMCLRD
 70
     0
  9
$DIMCLRE
 70
     0
  9
$DIMCLRT
 70
     0
  9
$DIMTFAC
 40
1.0
  9
$DIMGAP
 40
1.524
  9
$DIMJUST
 70
     0
  9
$DIMSD1
 70
     0
  9
$DIMSD2
 70
     0
  9
$DIMTOLJ
 70
     0
  9
$DIMTZIN
 70
     0
  9
$DIMALTZ
 70
     0
  9
$DIMALTTZ
 70
     0
  9
$DIMUPT
 70
     0
  9
$DIMDEC
 70
     2
  9
$DIMTDEC
 70
     0
  9
$DIMALTU
 70
     2
  9
$DIMALTTD
 70
     3
  9
$DIMTXSTY
  7
STANDARD
  9
$DIMAUNIT
 70
     0
  9
$DIMADEC
 70
     2
  9
$DIMALTRND
 40
0.0
  9
$DIMAZIN
 70
     0
  9
$DIMDSEP
 70
    44
  9
$DIMATFIT
 70
     3
  9
$DIMFRAC
 70
     0
  9
$DIMLDRBLK
  1

  9
$DIMLUNIT
 70
     2
  9
$DIMLWD
 70
    -2
  9
$DIMLWE
 70
    -2
  9
$DIMTMOVE
 70
     0
  9
$LUNITS
 70
     2
  9
$LUPREC
 70
     3
  9
$SKETCHINC
 40
1.0
  9
$FILLETRAD
 40
10.0
  9
$AUNITS
 70
     0
  9
$AUPREC
 70
     2
  9
$MENU
  1
.
  9
$ELEVATION
 40
0.0
  9
$PELEVATION
 40
0.0
  9
$THICKNESS
 40
0.0
  9
$LIMCHECK
 70
     0
  9
$CHAMFERA
 40
0.0
  9
$CHAMFERB
 40
0.0
  9
$CHAMFERC
 40
0.0
  9
$CHAMFERD
 40
0.0
  9
$SKPOLY
 70
     0
  9
$TDCREATE
 40
2460760.343422419
  9
$TDUCREATE
 40
2460760.301755752
  9
$TDUPDATE
 40
2460760.34342368
  9
$TDUUPDATE
 40
2460760.301757014
  9
$TDINDWG
 40
0.0000000116
  9
$TDUSRTIMER
 40
0.0000000116
  9
$USRTIMER
 70
     1
  9
$ANGBASE
 50
0.0
  9
$ANGDIR
 70
     0
  9
$PDMODE
 70
     0
  9
$PDSIZE
 40
-1.0
  9
$PLINEWID
 40
0.0
  9
$SPLFRAME
 70
     0
  9
$SPLINETYPE
 70
     6
  9
$SPLINESEGS
 70
     8
  9
$HANDSEED
  5
32D
  9
$SURFTAB1
 70
     6
  9
$SURFTAB2
 70
     6
  9
$SURFTYPE
 70
     6
  9
$SURFU
 70
     6
  9
$SURFV
 70
     6
  9
$UCSBASE
  2

  9
$UCSNAME
  2

  9
$UCSORG
 10
0.0
 20
0.0
 30
0.0
  9
$UCSXDIR
 10
1.0
 20
0.0
 30
0.0
  9
$UCSYDIR
 10
0.0
 20
1.0
 30
0.0
  9
$UCSORTHOREF
  2

  9
$UCSORTHOVIEW
 70
     0
  9
$UCSORGTOP
 10
0.0
 20
0.0
 30
0.0
  9
$UCSORGBOTTOM
 10
0.0
 20
0.0
 30
0.0
  9
$UCSORGLEFT
 10
0.0
 20
0.0
 30
0.0
  9
$UCSORGRIGHT
 10
0.0
 20
0.0
 30
0.0
  9
$UCSORGFRONT
 10
0.0
 20
0.0
 30
0.0
  9
$UCSORGBACK
 10
0.0
 20
0.0
 30
0.0
  9
$PUCSBASE
  2

  9
$PUCSNAME
  2

  9
$PUCSORG
 10
0.0
 20
0.0
 30
0.0
  9
$PUCSXDIR
 10
1.0
 20
0.0
 30
0.0
  9
$PUCSYDIR
 10
0.0
 20
1.0
 30
0.0
  9
$PUCSORTHOREF
  2

  9
$PUCSORTHOVIEW
 70
     0
  9
$PUCSORGTOP
 10
0.0
 20
0.0
 30
0.0
  9
$PUCSORGBOTTOM
 10
0.0
 20
0.0
 30
0.0
  9
$PUCSORGLEFT
 10
0.0
 20
0.0
 30
0.0
  9
$PUCSORGRIGHT
 10
0.0
 20
0.0
 30
0.0
  9
$PUCSORGFRONT
 10
0.0
 20
0.0
 30
0.0
  9
$PUCSORGBACK
 10
0.0
 20
0.0
 30
0.0
  9
$USERI1
 70
     0
  9
$USERI2
 70
     0
  9
$USERI3
 70
     0
  9
$USERI4
 70
     0
  9
$USERI5
 70
     0
  9
$USERR1
 40
0.0
  9
$USERR2
 40
0.0
  9
$USERR3
 40
0.0
  9
$USERR4
 40
0.0
  9
$USERR5
 40
0.0
  9
$WORLDVIEW
 70
     1
  9
$SHADEDGE
 70
     3
  9
$SHADEDIF
 70
    70
  9
$TILEMODE
 70
     1
  9
$MAXACTVP
 70
    64
  9
$PINSBASE
 10
0.0
 20
0.0
 30
0.0
  9
$PLIMCHECK
 70
     0
  9
$PEXTMIN
 10
1.0000000000E+20
 20
1.0000000000E+20
 30
1.0000000000E+20
  9
$PEXTMAX
 10
-1.0000000000E+20
 20
-1.0000000000E+20
 30
-1.0000000000E+20
  9
$PLIMMIN
 10
0.0
 20
0.0
  9
$PLIMMAX
 10
420.0
 20
297.0
  9
$UNITMODE
 70
     0
  9
$VISRETAIN
 70
     1
  9
$PLINEGEN
 70
     0
  9
$PSLTSCALE
 70
     1
  9
$TREEDEPTH
 70
  3020
  9
$CMLSTYLE
  2
Standard
  9
$CMLJUST
 70
     0
  9
$CMLSCALE
 40
20.0
  9
$PROXYGRAPHICS
 70
     1
  9
$MEASUREMENT
 70
     1
  9
$CELWEIGHT
370
    -1
  9
$ENDCAPS
280
     0
  9
$JOINSTYLE
280
     0
  9
$LWDISPLAY
290
     1
  9
$INSUNITS
 70
     4
  9
$HYPERLINKBASE
  1

  9
$STYLESHEET
  1

  9
$XEDIT
290
     1
  9
$CEPSNTYPE
380
     0
  9
$PSTYLEMODE
290
     1
  9
$FINGERPRINTGUID
  2
{1453cf58-a124-4887-a5c8-e0bc4a0cd06b}
  9
$VERSIONGUID
  2
{FAEB1C32-E019-11D5-929B-00C0DF256EC4}
  9
$EXTNAMES
290
     1
  9
$PSVPSCALE
 40
0.0
  9
$OLESTARTUP
290
     0
  0
ENDSEC
  0
SECTION
  2
CLASSES
  0
CLASS
  1
ACDBDICTIONARYWDFLT
  2
AcDbDictionaryWithDefault
  3
ObjectDBX Classes
 90
        0
280
     0
281
     0
  0
CLASS
  1
VISUALSTYLE
  2
AcDbVisualStyle
  3
ObjectDBX Classes
 90
     4095
280
     0
281
     0
  0
CLASS
  1
MATERIAL
  2
AcDbMaterial
  3
ObjectDBX Classes
 90
     1153
280
     0
281
     0
  0
CLASS
  1
SCALE
  2
AcDbScale
  3
ObjectDBX Classes
 90
     1153
280
     0
281
     0
  0
CLASS
  1
TABLESTYLE
  2
AcDbTableStyle
  3
ObjectDBX Classes
 90
     4095
280
     0
281
     0
  0
CLASS
  1
MLEADERSTYLE
  2
AcDbMLeaderStyle
  3
ACDB_MLEADERSTYLE_CLASS
 90
     4095
280
     0
281
     0
  0
CLASS
  1
SUN
  2
AcDbSun
  3
SCENEOE
 90
     1153
280
     0
281
     0
  0
CLASS
  1
ACDBPLACEHOLDER
  2
AcDbPlaceHolder
  3
ObjectDBX Classes
 90
        0
280
     0
281
     0
  0
CLASS
  1
LAYOUT
  2
AcDbLayout
  3
ObjectDBX Classes
 90
        0
280
     0
281
     0
  0
ENDSEC
  0
SECTION
  2
TABLES
  0
TABLE
  2
VPORT
  5
8
330
0
100
AcDbSymbolTable
 70
     1
  0
VPORT
  5
29
330
8
100
AcDbSymbolTableRecord
100
AcDbViewportTableRecord
  2
*Active
 70
     0
 10
0.0
 20
0.0
 11
1.0
 21
1.0
 12
10000.0
 22
5000.0
 13
0.0
 23
0.0
 14
10.0
 24
10.0
 15
10.0
 25
10.0
 16
0.0
 26
0.0
 36
1.0
 17
0.0
 27
0.0
 37
0.0
 40
10000.0
 41
2.0
 42
50.0
 43
0.0
 44
0.0
 50
0.0
 51
0.0
 71
     0
 72
  2000
 73
     1
 74
     3
 75
     0
 76
     0
 77
     0
 78
     0
281
     0
 65
     1
110
0.0
120
0.0
130
0.0
111
1.0
121
0.0
131
0.0
112
0.0
122
1.0
132
0.0
 79
     0
146
0.0
  0
ENDTAB
  0
TABLE
  2
LTYPE
  5
5
330
0
100
AcDbSymbolTable
 70
    10
  0
LTYPE
  5
14
330
5
100
AcDbSymbolTableRecord
100
AcDbLinetypeTableRecord
  2
ByBlock
 70
     0
  3

 72
    65
 73
     0
 40
0.0
  0
LTYPE
  5
15
330
5
100
AcDbSymbolTableRecord
100
AcDbLinetypeTableRecord
  2
ByLayer
 70
     0
  3

 72
    65
 73
     0
 40
0.0
  0
LTYPE
  5
16
330
5
100
AcDbSymbolTableRecord
100
AcDbLinetypeTableRecord
  2
Continuous
 70
     0
  3
Solid line
 72
    65
 73
     0
 40
0.0
  0
LTYPE
  5
6E
330
5
100
AcDbSymbolTableRecord
100
AcDbLinetypeTableRecord
  2
SLD-Plná
 70
     0
  3
SolidWorks Line Style
 72
    65
 73
     0
 40
0.0
  0
LTYPE
  5
6F
330
5
100
AcDbSymbolTableRecord
100
AcDbLinetypeTableRecord
  2
SLD-Čárkovaná
 70
     0
  3
SolidWorks Line Style
 72
    65
 73
     2
 40
1.905
 49
1.27
 74
     0
 49
-0.635
 74
     0
  0
LTYPE
  5
70
330
5
100
AcDbSymbolTableRecord
100
AcDbLinetypeTableRecord
  2
SLD-Dvojitě-čerchovaná
 70
     0
  3
SolidWorks Line Style
 72
    65
 73
     6
 40
12.7
 49
6.35
 74
     0
 49
-1.27
 74
     0
 49
1.27
 74
     0
 49
-1.27
 74
     0
 49
1.27
 74
     0
 49
-1.27
 74
     0
  0
LTYPE
  5
71
330
5
100
AcDbSymbolTableRecord
100
AcDbLinetypeTableRecord
  2
SLD-Čerchovaná
 70
     0
  3
SolidWorks Line Style
 72
    65
 73
     4
 40
10.16
 49
6.35
 74
     0
 49
-1.27
 74
     0
 49
1.27
 74
     0
 49
-1.27
 74
     0
  0
LTYPE
  5
72
330
5
100
AcDbSymbolTableRecord
100
AcDbLinetypeTableRecord
  2
SLD-Osa
 70
     0
  3
SolidWorks Line Style
 72
    65
 73
     4
 40
19.05
 49
15.24
 74
     0
 49
-1.27
 74
     0
 49
1.27
 74
     0
 49
-1.27
 74
     0
  0
LTYPE
  5
73
330
5
100
AcDbSymbolTableRecord
100
AcDbLinetypeTableRecord
  2
SLD-Tečkovaná
 70
     0
  3
SolidWorks Line Style
 72
    65
 73
     2
 40
0.635
 49
0.0
 74
     0
 49
-0.635
 74
     0
  0
LTYPE
  5
74
330
5
100
AcDbSymbolTableRecord
100
AcDbLinetypeTableRecord
  2
SLD-Hrubá-tenká-čerchovaná
 70
     0
  3
SolidWorks Line Style
 72
    65
 73
     4
 40
10.16
 49
6.35
 74
     0
 49
-1.27
 74
     0
 49
1.27
 74
     0
 49
-1.27
 74
     0
  0
LTYPE
  5
75
330
5
100
AcDbSymbolTableRecord
100
AcDbLinetypeTableRecord
  2
SLD-Řez-1
 70
     0
  3
SolidWorks Line Style
 72
    65
 73
     4
 40
8.128
 49
5.08
 74
     0
 49
-1.016
 74
     0
 49
1.016
 74
     0
 49
-1.016
 74
     0
  0
LTYPE
  5
76
330
5
100
AcDbSymbolTableRecord
100
AcDbLinetypeTableRecord
  2
SLD-Řez-2
 70
     0
  3
SolidWorks Line Style
 72
    65
 73
     2
 40
5080.0
 49
0.0
 74
     0
 49
-5080.0
 74
     0
  0
ENDTAB
  0
TABLE
  2
LAYER
  5
2
330
0
100
AcDbSymbolTable
 70
    13
  0
LAYER
  5
10
330
2
100
AcDbSymbolTableRecord
100
AcDbLayerTableRecord
  2
0
 70
     0
 62
     7
  6
Continuous
370
    -3
390
F
  0
LAYER
  5
77
330
2
100
AcDbSymbolTableRecord
100
AcDbLayerTableRecord
  2
FORMAT
 70
     0
 62
     7
  6
SLD-Plná
370
    -3
390
F
  0
LAYER
  5
78
330
2
100
AcDbSymbolTableRecord
100
AcDbLayerTableRecord
  2
OSA
 70
     0
 62
     7
  6
SLD-Hrubá-tenká-čerchovaná
370
    -3
390
F
  0
LAYER
  5
79
330
2
100
AcDbSymbolTableRecord
100
AcDbLayerTableRecord
  2
0_35
 70
     0
 62
     7
  6
SLD-Plná
370
    35
390
F
  0
LAYER
  5
7A
330
2
100
AcDbSymbolTableRecord
100
AcDbLayerTableRecord
  2
0_5
 70
     0
 62
     7
  6
SLD-Plná
370
    50
390
F
  0
LAYER
  5
7B
330
2
100
AcDbSymbolTableRecord
100
AcDbLayerTableRecord
  2
0_25
 70
     0
 62
     7
  6
SLD-Plná
370
    25
390
F
  0
LAYER
  5
7C
330
2
100
AcDbSymbolTableRecord
100
AcDbLayerTableRecord
  2
0_18
 70
     0
 62
     7
  6
SLD-Plná
370
    -3
390
F
  0
LAYER
  5
7D
330
2
100
AcDbSymbolTableRecord
100
AcDbLayerTableRecord
  2
SLD-0
 70
     0
 62
   179
  6
SLD-Plná
370
    -3
390
F
  0
LAYER
  5
7E
330
2
100
AcDbSymbolTableRecord
100
AcDbLayerTableRecord
  2
KOTY
 70
     0
 62
     7
  6
SLD-Plná
370
    -3
390
F
  0
LAYER
  5
7F
330
2
100
AcDbSymbolTableRecord
100
AcDbLayerTableRecord
  2
SILNA
 70
     0
 62
   179
  6
SLD-Plná
370
    -3
390
F
  0
LAYER
  5
80
330
2
100
AcDbSymbolTableRecord
100
AcDbLayerTableRecord
  2
0_18_1
 70
     0
 62
   179
  6
SLD-Plná
370
    -3
390
F
  0
LAYER
  5
81
330
2
100
AcDbSymbolTableRecord
100
AcDbLayerTableRecord
  2
0_35_1
 70
     0
 62
   179
  6
SLD-Plná
370
    35
390
F
  0
LAYER
  5
82
330
2
100
AcDbSymbolTableRecord
100
AcDbLayerTableRecord
  2
0_5_1
 70
     0
 62
   179
  6
SLD-Plná
370
    50
390
F
  0
ENDTAB
  0
TABLE
  2
STYLE
  5
3
330
0
100
AcDbSymbolTable
 70
     1
  0
STYLE
  5
11
330
3
100
AcDbSymbolTableRecord
100
AcDbTextStyleTableRecord
  2
STANDARD
 70
     0
 40
0.0
 41
1.0
 50
0.0
 71
     0
 42
2.0
  3
SWISOP1.TTF
  4

1001
ACAD
1000
SWISOP1
1071
        2
  0
ENDTAB
  0
TABLE
  2
VIEW
  5
6
330
0
100
AcDbSymbolTable
 70
     0
  0
ENDTAB
  0
TABLE
  2
UCS
  5
7
330
0
100
AcDbSymbolTable
 70
     0
  0
ENDTAB
  0
TABLE
  2
APPID
  5
9
330
0
100
AcDbSymbolTable
 70
     1
  0
APPID
  5
12
330
9
100
AcDbSymbolTableRecord
100
AcDbRegAppTableRecord
  2
ACAD
 70
     0
  0
ENDTAB
  0
TABLE
  2
DIMSTYLE
  5
A
330
0
100
AcDbSymbolTable
 70
     1
100
AcDbDimStyleTable
  0
DIMSTYLE
105
27
330
A
100
AcDbSymbolTableRecord
100
AcDbDimStyleTableRecord
  2
ISO-25
 70
     0
 41
2.5
 42
0.625
 43
3.75
 44
1.25
 73
     0
 74
     0
 77
     1
 78
     8
140
2.5
141
2.5
143
0.0393700787
147
0.625
171
     3
172
     1
178
     0
271
     2
272
     2
274
     3
278
    44
283
     0
284
     8
340
11
  0
ENDTAB
  0
TABLE
  2
BLOCK_RECORD
  5
1
330
0
100
AcDbSymbolTable
 70
     1
  0
BLOCK_RECORD
  5
1F
330
1
100
AcDbSymbolTableRecord
100
AcDbBlockTableRecord
  2
*Model_Space
340
22
  0
BLOCK_RECORD
  5
1B
330
1
100
AcDbSymbolTableRecord
100
AcDbBlockTableRecord
  2
*Paper_Space
340
1E
  0
BLOCK_RECORD
  5
23
330
1
100
AcDbSymbolTableRecord
100
AcDbBlockTableRecord
  2
*Paper_Space0
340
26
  0
ENDTAB
  0
ENDSEC
  0
SECTION
  2
BLOCKS
  0
BLOCK
  5
20
330
1F
100
AcDbEntity
  8
0
100
AcDbBlockBegin
  2
*Model_Space
 70
     0
 10
0.0
 20
0.0
 30
0.0
  3
*Model_Space
  1

  0
ENDBLK
  5
21
330
1F
100
AcDbEntity
  8
0
100
AcDbBlockEnd
  0
BLOCK
  5
1C
330
1B
100
AcDbEntity
 67
     1
  8
0
100
AcDbBlockBegin
  2
*Paper_Space
 70
     0
 10
0.0
 20
0.0
 30
0.0
  3
*Paper_Space
  1

  0
ENDBLK
  5
1D
330
1B
100
AcDbEntity
 67
     1
  8
0
100
AcDbBlockEnd
  0
BLOCK
  5
24
330
23
100
AcDbEntity
  8
0
100
AcDbBlockBegin
  2
*Paper_Space0
 70
     0
 10
0.0
 20
0.0
 30
0.0
  3
*Paper_Space0
  1

  0
ENDBLK
  5
25
330
23
100
AcDbEntity
  8
0
100
AcDbBlockEnd
  0
ENDSEC
  0
SECTION
  2
ENTITIES
  0
ARC
  5
83
330
1F
100
AcDbEntity
  8
0
  6
SLD-Plná
 62
     7
370
    25
100
AcDbCircle
 10
6263.9727391714
 20
7285.4651288775
 30
0.0
 40
2.5
100
AcDbArc
 50
11.5369590328
 51
90.0
  0
ARC
  5
84
330
1F
100
AcDbEntity
  8
0
  6
SLD-Plná
 62
     7
370
    25
100
AcDbCircle
 10
6263.8717186569
 20
7285.4651288775
 30
0.0
 40
2.500000000000941
100
AcDbArc
 50
90.0
 51
168.4630409672
  0
ARC
  5
85
330
1F
100
AcDbEntity
  8
0
  6
SLD-Plná
 62
     7
370
    25
100
AcDbCircle
 10
6246.4222289142
 20
7247.7151288775
 30
0.0
 40
0.5
100
AcDbArc
 50
270.0
 51
0.0
  0
LINE
  5
86
330
1F
100
AcDbEntity
  8
0
  6
SLD-Plná
 62
     7
370
    25
100
AcDbLine
 10
6246.9222289142
 20
7247.7151288775
 30
0.0
 11
6247.4222289142
 21
7247.7151288775
 31
0.0
  0
ARC
  5
87
330
1F
100
AcDbEntity
  8
0
  6
SLD-Plná
 62
     7
370
    25
100
AcDbCircle
 10
6246.4222289142
 20
7247.7151288775
 30
0.0
 40
1.0
100
AcDbArc
 50
270.0
 51
0.0
  0
LINE
  5
88
330
1F
100
AcDbEntity
  8
0
  6
SLD-Plná
 62
     7
370
    25
100
AcDbLine
 10
6246.4222289142
 20
7246.7151288775
 30
0.0
 11
6246.4222289142
 21
7246.9151288775
 31
0.0
  0
ARC
  5
89
330
1F
100
AcDbEntity
  8
0
  6
SLD-Plná
 62
     7
370
    25
100
AcDbCircle
 10
6246.4222289142
 20
7247.7151288775
 30
0.0
 40
0.8000000000001819
100
AcDbArc
 50
270.0
 51
303.3755969556
  0
SPLINE
  5
8A
330
1F
100
AcDbEntity
  8
0
  6
SLD-Plná
 62
     7
370
    25
100
AcDbSpline
210
0.0
220
0.0
230
1.0
 70
     8
 71
     3
 72
     9
 73
     5
 74
     0
 42
0.00000001
 43
0.00000001
 40
0.0
 40
0.0
 40
0.0
 40
0.0
 40
0.5000000000000185
 40
1.0
 40
1.0
 40
1.0
 40
1.0
 10
6247.002027258442
 20
7247.163917593168
 30
0.0
 10
6246.978726951914
 20
7247.144462481107
 30
0.0
 10
6246.932126338859
 20
7247.105552256983
 30
0.0
 10
6246.885594784906
 20
7247.066559473483
 30
0.0
 10
6246.862329007929
 20
7247.047063081733
 30
0.0
  0
ARC
  5
8B
330
1F
100
AcDbEntity
  8
0
  6
SLD-Plná
 62
     7
370
    25
100
AcDbCircle
 10
6246.4222289142
 20
7247.7151288775
 30
0.0
 40
0.7999999999996497
100
AcDbArc
 50
316.4478826493
 51
359.5152997153
  0
SPLINE
  5
8C
330
1F
100
AcDbEntity
  8
0
  6
SLD-Plná
 62
     7
370
    25
100
AcDbSpline
210
0.0
220
0.0
230
1.0
 70
    24
 71
     3
 72
    14
 73
    10
 74
     0
 42
0.00000001
 43
0.00000001
 40
0.0
 40
0.0
 40
0.0
 40
0.0
 40
0.25
 40
0.25
 40
0.5
 40
0.5
 40
0.75
 40
0.75
 40
1.0
 40
1.0
 40
1.0
 40
1.0
 10
6246.422228914158
 20
7247.039202820501
 30
0.0
 10
6246.489295147428
 20
7247.095302248333
 30
0.0
 10
6246.556752480408
 20
7247.15172882246
 30
0.0
 10
6246.691865219091
 20
7247.264747654188
 30
0.0
 10
6246.759496191916
 20
7247.321319474224
 30
0.0
 10
6246.894786973045
 20
7247.434487234539
 30
0.0
 10
6246.963121949299
 20
7247.491647937947
 30
0.0
 10
6247.096713902055
 20
7247.603394665723
 30
0.0
 10
6247.162749869818
 20
7247.658632299136
 30
0.0
 10
6247.222200288289
 20
7247.70836126553
 30
0.0
  0
LINE
  5
8D
330
1F
100
AcDbEntity
  8
0
  6
SLD-Plná
 62
     7
370
    25
100
AcDbLine
 10
6246.4222289142
 20
7247.0392028205
 30
0.0
 11
6246.4222289142
 21
7247.2151288775
 31
0.0
  0
SPLINE
  5
8E
330
1F
100
AcDbEntity
  8
0
  6
SLD-Plná
 62
     7
370
    25
100
AcDbSpline
210
0.0
220
0.0
230
1.0
 70
    24
 71
     3
 72
     8
 73
     4
 74
     0
 42
0.00000001
 43
0.00000001
 40
0.0
 40
0.0
 40
0.0
 40
0.0
 40
1.0
 40
1.0
 40
1.0
 40
1.0
 10
6244.922228914157
 20
7246.985952984321
 30
0.0
 10
6244.894651457659
 20
7246.96288504901
 30
0.0
 10
6244.867952456716
 20
7246.940551922436
 30
0.0
 10
6244.842340111969
 20
7246.919127759848
 30
0.0
  0
LINE
  5
8F
330
1F
100
AcDbEntity
  8
0
  6
SLD-Plná
 62
     7
370
    25
100
AcDbLine
 10
6244.9222289142
 20
7246.7151288775
 30
0.0
 11
6244.9222289142
 21
7246.9859529843
 31
0.0
  0
ARC
  5
90
330
1F
100
AcDbEntity
  8
0
  6
SLD-Plná
 62
     7
370
    25
100
AcDbCircle
 10
6244.9222289142
 20
7247.7151288775
 30
0.0
 40
1.000000000000909
100
AcDbArc
 50
180.0
 51
270.0
  0
LINE
  5
91
330
1F
100
AcDbEntity
  8
0
  6
SLD-Plná
 62
     7
370
    25
100
AcDbLine
 10
6243.9222289142
 20
7247.7151288775
 30
0.0
 11
6244.4222289142
 21
7247.7151288775
 31
0.0
  0
ARC
  5
92
330
1F
100
AcDbEntity
  8
0
  6
SLD-Plná
 62
     7
370
    25
100
AcDbCircle
 10
6244.9222289142
 20
7247.7151288775
 30
0.0
 40
0.5
100
AcDbArc
 50
180.0
 51
254.3779912591
  0
SPLINE
  5
93
330
1F
100
AcDbEntity
  8
0
  6
SLD-Plná
 62
     7
370
    25
100
AcDbSpline
210
0.0
220
0.0
230
1.0
 70
    24
 71
     3
 72
     8
 73
     4
 74
     0
 42
0.00000001
 43
0.00000001
 40
0.0
 40
0.0
 40
0.0
 40
0.0
 40
1.0
 40
1.0
 40
1.0
 40
1.0
 10
6244.52981685347
 20
7247.017982713028
 30
0.0
 10
6244.605108921604
 20
7247.080962870648
 30
0.0
 10
6244.696066605678
 20
7247.157046971164
 30
0.0
 10
6244.787584026369
 20
7247.233599279037
 30
0.0
  0
ARC
  5
94
330
1F
100
AcDbEntity
  8
0
  6
SLD-Plná
 62
     7
370
    25
100
AcDbCircle
 10
6244.9222289142
 20
7247.7151288775
 30
0.0
 40
0.7999999999996878
100
AcDbArc
 50
240.6255583612
 51
264.2688335443
  0
LINE
  5
95
330
1F
100
AcDbEntity
  8
0
  6
SLD-Plná
 62
     7
370
    25
100
AcDbLine
 10
6247.2222289142
 20
7249.2151288775
 30
0.0
 11
6247.4222289142
 21
7249.2151288775
 31
0.0
  0
LINE
  5
96
330
1F
100
AcDbEntity
  8
0
  6
SLD-Plná
 62
     7
370
    25
100
AcDbLine
 10
6247.4222289142
 20
7249.2151288775
 30
0.0
 11
6247.4222289142
 21
7247.7151288775
 31
0.0
  0
LINE
  5
97
330
1F
100
AcDbEntity
  8
0
  6
SLD-Plná
 62
     7
370
    25
100
AcDbLine
 10
6246.9222289142
 20
7247.7151288775
 30
0.0
 11
6246.9222289142
 21
7248.6589089592
 31
0.0
  0
LINE
  5
98
330
1F
100
AcDbEntity
  8
0
  6
SLD-Plná
 62
     7
370
    25
100
AcDbLine
 10
6247.2222289142
 20
7248.9098523554
 30
0.0
 11
6246.9222289142
 21
7248.6589089592
 31
0.0
  0
LINE
  5
99
330
1F
100
AcDbEntity
  8
0
  6
SLD-Plná
 62
     7
370
    25
100
AcDbLine
 10
6247.2222289142
 20
7249.2151288775
 30
0.0
 11
6247.2222289142
 21
7248.9098523554
 31
0.0
  0
ARC
  5
9A
330
1F
100
AcDbEntity
  8
0
  6
SLD-Plná
 62
     7
370
    25
100
AcDbCircle
 10
6244.9222289142
 20
7249.2151288775
 30
0.0
 40
0.5
100
AcDbArc
 50
90.0
 51
180.0
  0
LINE
  5
9B
330
1F
100
AcDbEntity
  8
0
  6
SLD-Plná
 62
     7
370
    25
100
AcDbLine
 10
6245.781585921
 20
7249.7151288775
 30
0.0
 11
6244.9222289142
 21
7249.7151288775
 31
0.0
  0
LINE
  5
9C
330
1F
100
AcDbEntity
  8
0
  6
SLD-Plná
 62
     7
370
    25
100
AcDbLine
 10
6244.4222289142
 20
7248.5780566642
 30
0.0
 11
6245.781585921
 21
7249.7151288775
 31
0.0
  0
LINE
  5
9D
330
1F
100
AcDbEntity
  8
0
  6
SLD-Plná
 62
     7
370
    25
100
AcDbLine
 10
6244.4222289142
 20
7249.2151288775
 30
0.0
 11
6244.4222289142
 21
7248.5780566642
 31
0.0
  0
LINE
  5
9E
330
1F
100
AcDbEntity
  8
0
  6
SLD-Plná
 62
     7
370
    25
100
AcDbLine
 10
6246.9222289142
 20
7249.2151288775
 30
0.0
 11
6247.1564803132
 21
7249.2151288775
 31
0.0
  0
LINE
  5
9F
330
1F
100
AcDbEntity
  8
0
  6
SLD-Plná
 62
     7
370
    25
100
AcDbLine
 10
6246.9222289142
 20
7249.0191827386
 30
0.0
 11
6246.9222289142
 21
7249.2151288775
 31
0.0
  0
LINE
  5
A0
330
1F
100
AcDbEntity
  8
0
  6
SLD-Plná
 62
     7
370
    25
100
AcDbLine
 10
6246.9222289142
 20
7249.0191827386
 30
0.0
 11
6247.1564803132
 21
7249.2151288775
 31
0.0
  0
LINE
  5
A1
330
1F
100
AcDbEntity
  8
0
  6
SLD-Plná
 62
     7
370
    25
100
AcDbLine
 10
6246.4222289142
 20
7249.7151288775
 30
0.0
 11
6246.2122891611
 21
7249.7151288775
 31
0.0
  0
LINE
  5
A2
330
1F
100
AcDbEntity
  8
0
  6
SLD-Plná
 62
     7
370
    25
100
AcDbLine
 10
6246.4222289142
 20
7249.8907388596
 30
0.0
 11
6246.2122891611
 21
7249.7151288775
 31
0.0
  0
LINE
  5
A3
330
1F
100
AcDbEntity
  8
0
  6
SLD-Plná
 62
     7
370
    25
100
AcDbLine
 10
6246.4222289142
 20
7249.7151288775
 30
0.0
 11
6246.4222289142
 21
7249.8907388596
 31
0.0
  0
LINE
  5
A4
330
1F
100
AcDbEntity
  8
0
  6
SLD-Plná
 62
     7
370
    25
100
AcDbLine
 10
6243.9222289142
 20
7249.2151288775
 30
0.0
 11
6244.4222289142
 21
7249.2151288775
 31
0.0
  0
ARC
  5
A5
330
1F
100
AcDbEntity
  8
0
  6
SLD-Plná
 62
     7
370
    25
100
AcDbCircle
 10
6244.9222289142
 20
7249.2151288775
 30
0.0
 40
1.000000000000909
100
AcDbArc
 50
90.0
 51
180.0
  0
LINE
  5
A6
330
1F
100
AcDbEntity
  8
0
  6
SLD-Plná
 62
     7
370
    25
100
AcDbLine
 10
6244.9222289142
 20
7249.7151288775
 30
0.0
 11
6244.9222289142
 21
7250.2151288775
 31
0.0
  0
LINE
  5
A7
330
1F
100
AcDbEntity
  8
0
  6
SLD-Plná
 62
     7
370
    25
100
AcDbLine
 10
6246.4222289142
 20
7246.9151288775
 30
0.0
 11
6246.2738999146
 21
7246.9151288775
 31
0.0
  0
LINE
  5
A8
330
1F
100
AcDbEntity
  8
0
  6
SLD-Plná
 62
     7
370
    25
100
AcDbLine
 10
6246.4222289142
 20
7246.7151288775
 30
0.0
 11
6244.9222289142
 21
7246.7151288775
 31
0.0
  0
LINE
  5
A9
330
1F
100
AcDbEntity
  8
0
  6
SLD-Plná
 62
     7
370
    25
100
AcDbLine
 10
6245.1962061098
 20
7247.2151288775
 30
0.0
 11
6246.4222289142
 21
7247.2151288775
 31
0.0
  0
LINE
  5
AA
330
1F
100
AcDbEntity
  8
0
  6
SLD-Plná
 62
     7
370
    25
100
AcDbLine
 10
6245.1962061098
 20
7247.2151288775
 30
0.0
 11
6244.9222289142
 21
7246.9859529843
 31
0.0
  0
LINE
  5
AB
330
1F
100
AcDbEntity
  8
0
  6
SLD-Plná
 62
     7
370
    25
100
AcDbLine
 10
6246.2738999146
 20
7246.9151288775
 30
0.0
 11
6246.4222289142
 21
7247.0392028205
 31
0.0
  0
LINE
  5
AC
330
1F
100
AcDbEntity
  8
0
  6
SLD-Plná
 62
     7
370
    25
100
AcDbLine
 10
6244.4222289142
 20
7248.2177828848
 30
0.0
 11
6244.1222289142
 21
7247.9668394885
 31
0.0
  0
LINE
  5
AD
330
1F
100
AcDbEntity
  8
0
  6
SLD-Plná
 62
     7
370
    25
100
AcDbLine
 10
6244.4222289142
 20
7248.2177828848
 30
0.0
 11
6244.4222289142
 21
7247.7151288775
 31
0.0
  0
LINE
  5
AE
330
1F
100
AcDbEntity
  8
0
  6
SLD-Plná
 62
     7
370
    25
100
AcDbLine
 10
6243.9222289142
 20
7247.7151288775
 30
0.0
 11
6243.9222289142
 21
7249.2151288775
 31
0.0
  0
LINE
  5
AF
330
1F
100
AcDbEntity
  8
0
  6
SLD-Plná
 62
     7
370
    25
100
AcDbLine
 10
6244.1222289142
 20
7248.327113268
 30
0.0
 11
6244.4222289142
 21
7248.5780566642
 31
0.0
  0
LINE
  5
B0
330
1F
100
AcDbEntity
  8
0
  6
SLD-Plná
 62
     7
370
    25
100
AcDbLine
 10
6244.1222289142
 20
7247.9668394885
 30
0.0
 11
6244.1222289142
 21
7248.327113268
 31
0.0
  0
LINE
  5
B1
330
1F
100
AcDbEntity
  8
0
  6
SLD-Plná
 62
     7
370
    25
100
AcDbLine
 10
6244.9222289142
 20
7250.2151288775
 30
0.0
 11
6246.4222289142
 21
7250.2151288775
 31
0.0
  0
LINE
  5
B2
330
1F
100
AcDbEntity
  8
0
  6
SLD-Plná
 62
     7
370
    25
100
AcDbLine
 10
6246.4222289142
 20
7250.0151288775
 30
0.0
 11
6246.4222289142
 21
7250.2151288775
 31
0.0
  0
LINE
  5
B3
330
1F
100
AcDbEntity
  8
0
  6
SLD-Plná
 62
     7
370
    25
100
AcDbLine
 10
6246.1402325375
 20
7250.0151288775
 30
0.0
 11
6246.4222289142
 21
7250.0151288775
 31
0.0
  0
LINE
  5
B4
330
1F
100
AcDbEntity
  8
0
  6
SLD-Plná
 62
     7
370
    25
100
AcDbLine
 10
6245.781585921
 20
7249.7151288775
 30
0.0
 11
6246.1402325375
 21
7250.0151288775
 31
0.0
  0
ARC
  5
B5
330
1F
100
AcDbEntity
  8
0
  6
SLD-Plná
 62
     7
370
    25
100
AcDbCircle
 10
6246.4222289142
 20
7249.2151288775
 30
0.0
 40
1.0
100
AcDbArc
 50
0.0
 51
90.0
  0
ARC
  5
B6
330
1F
100
AcDbEntity
  8
0
  6
SLD-Plná
 62
     7
370
    25
100
AcDbCircle
 10
6246.4222289142
 20
7249.2151288775
 30
0.0
 40
0.8000000000001984
100
AcDbArc
 50
0.0
 51
3.8344626632
  0
ARC
  5
B7
330
1F
100
AcDbEntity
  8
0
  6
SLD-Plná
 62
     7
370
    25
100
AcDbCircle
 10
6246.4222289142
 20
7249.2151288775
 30
0.0
 40
0.5
100
AcDbArc
 50
0.0
 51
90.0
  0
ARC
  5
B8
330
1F
100
AcDbEntity
  8
0
  6
SLD-Plná
 62
     7
370
    25
100
AcDbCircle
 10
6246.4222289142
 20
7249.2151288775
 30
0.0
 40
0.8000000000001819
100
AcDbArc
 50
80.2853844046
 51
90.0
  0
SPLINE
  5
B9
330
1F
100
AcDbEntity
  8
0
  6
SLD-Plná
 62
     7
370
    25
100
AcDbSpline
210
0.0
220
0.0
230
1.0
 70
    24
 71
     3
 72
     8
 73
     4
 74
     0
 42
0.00000001
 43
0.00000001
 40
0.0
 40
0.0
 40
0.0
 40
0.0
 40
1.0
 40
1.0
 40
1.0
 40
1.0
 10
6246.557221568107
 20
7250.003657243106
 30
0.0
 10
6246.514852353973
 20
7249.968216328139
 30
0.0
 10
6246.469562764101
 20
7249.930332583152
 30
0.0
 10
6246.422228914162
 20
7249.890738859618
 30
0.0
  0
SPLINE
  5
BA
330
1F
100
AcDbEntity
  8
0
  6
SLD-Plná
 62
     7
370
    25
100
AcDbSpline
210
0.0
220
0.0
230
1.0
 70
    24
 71
     3
 72
     8
 73
     4
 74
     0
 42
0.00000001
 43
0.00000001
 40
0.0000003354578308
 40
0.0000003354578308
 40
0.0000003354578308
 40
0.0000003354578308
 40
0.0000935783579146
 40
0.0000935783579146
 40
0.0000935783579146
 40
0.0000935783579146
 10
6247.156480313244
 20
7249.215128877492
 30
0.0
 10
6247.178563481456
 20
7249.233600961595
 30
0.0
 10
6247.200050977403
 20
7249.251574778958
 30
0.0
 10
6247.220438054091
 20
7249.268628119836
 30
0.0
  0
LINE
  5
BB
330
1F
100
AcDbEntity
  8
0
  6
SLD-Plná
 62
     7
370
    25
100
AcDbLine
 10
6246.2122891611
 20
7249.7151288775
 30
0.0
 11
6244.4222289142
 21
7248.2177828848
 31
0.0
  0
LINE
  5
BC
330
1F
100
AcDbEntity
  8
0
  6
SLD-Plná
 62
     7
370
    25
100
AcDbLine
 10
6244.7875840264
 20
7247.233599279
 30
0.0
 11
6246.9222289142
 21
7249.0191827386
 31
0.0
  0
LINE
  5
BD
330
1F
100
AcDbEntity
  8
0
  6
SLD-Plná
 62
     7
370
    25
100
AcDbLine
 10
6246.9222289142
 20
7248.6589089592
 30
0.0
 11
6245.1962061098
 21
7247.2151288775
 31
0.0
  0
ARC
  5
BE
330
1F
100
AcDbEntity
  8
0
  6
SLD-Plná
 62
     7
370
    25
100
AcDbCircle
 10
6244.1722289142
 20
7259.9651288775
 30
0.0
 40
1.000000000000909
100
AcDbArc
 50
90.0
 51
180.0
  0
LINE
  5
BF
330
1F
100
AcDbEntity
  8
0
  6
SLD-Plná
 62
     7
370
    25
100
AcDbLine
 10
6244.1722289142
 20
7260.6144218967
 30
0.0
 11
6244.1722289142
 21
7260.9651288775
 31
0.0
  0
ARC
  5
C0
330
1F
100
AcDbEntity
  8
0
  6
SLD-Plná
 62
     7
370
    25
100
AcDbCircle
 10
6244.1722289142
 20
7259.9651288775
 30
0.0
 40
0.5000000000016773
100
AcDbArc
 50
124.8234796037
 51
135.0
  0
LINE
  5
C1
330
1F
100
AcDbEntity
  8
0
  6
SLD-Plná
 62
     7
370
    25
100
AcDbLine
 10
6243.3960064326
 20
7259.9651288775
 30
0.0
 11
6243.1722289142
 21
7259.9651288775
 31
0.0
  0
SPLINE
  5
C2
330
1F
100
AcDbEntity
  8
0
  6
SLD-Plná
 62
     7
370
    25
100
AcDbSpline
210
0.0
220
0.0
230
1.0
 70
    24
 71
     3
 72
    10
 73
     6
 74
     0
 42
0.00000001
 43
0.00000001
 40
0.0
 40
0.0
 40
0.0
 40
0.0
 40
0.5
 40
0.5
 40
1.0
 40
1.0
 40
1.0
 40
1.0
 10
6243.396006432555
 20
7259.965128877491
 30
0.0
 10
6243.461011239624
 20
7260.019503967683
 30
0.0
 10
6243.532296813181
 20
7260.079132780783
 30
0.0
 10
6243.675532110251
 20
7260.198945953804
 30
0.0
 10
6243.747101991587
 20
7260.258812584103
 30
0.0
 10
6243.818675523565
 20
7260.318682268085
 30
0.0
  0
SPLINE
  5
C3
330
1F
100
AcDbEntity
  8
0
  6
SLD-Plná
 62
     7
370
    25
100
AcDbSpline
210
0.0
220
0.0
230
1.0
 70
    24
 71
     3
 72
     8
 73
     4
 74
     0
 42
0.00000001
 43
0.00000001
 40
0.0
 40
0.0
 40
0.0
 40
0.0
 40
1.0
 40
1.0
 40
1.0
 40
1.0
 10
6243.886703902289
 20
7260.375586509408
 30
0.0
 10
6243.981913172465
 20
7260.455226968109
 30
0.0
 10
6244.077131808841
 20
7260.534875261429
 30
0.0
 10
6244.172228914158
 20
7260.614421896694
 30
0.0
  0
LINE
  5
C4
330
1F
100
AcDbEntity
  8
0
  6
SLD-Plná
 62
     7
370
    25
100
AcDbLine
 10
6247.1722289142
 20
7260.4651288775
 30
0.0
 11
6247.1722289142
 21
7260.9651288775
 31
0.0
  0
ARC
  5
C5
330
1F
100
AcDbEntity
  8
0
  6
SLD-Plná
 62
     7
370
    25
100
AcDbCircle
 10
6247.1722289142
 20
7259.9651288775
 30
0.0
 40
1.0
100
AcDbArc
 50
0.0
 51
90.0
  0
LINE
  5
C6
330
1F
100
AcDbEntity
  8
0
  6
SLD-Plná
 62
     7
370
    25
100
AcDbLine
 10
6248.1722289142
 20
7259.9651288775
 30
0.0
 11
6247.9722289142
 21
7259.9651288775
 31
0.0
  0
ARC
  5
C7
330
1F
100
AcDbEntity
  8
0
  6
SLD-Plná
 62
     7
370
    25
100
AcDbCircle
 10
6247.1722289142
 20
7259.9651288775
 30
0.0
 40
0.7999999999998246
100
AcDbArc
 50
0.0
 51
17.3287199745
  0
ARC
  5
C8
330
1F
100
AcDbEntity
  8
0
  6
SLD-Plná
 62
     7
370
    25
100
AcDbCircle
 10
6247.1722289142
 20
7259.9651288775
 30
0.0
 40
0.5000000000009095
100
AcDbArc
 50
2.0008819063
 51
90.0
  0
SPLINE
  5
C9
330
1F
100
AcDbEntity
  8
0
  6
SLD-Plná
 62
     7
370
    25
100
AcDbSpline
210
0.0
220
0.0
230
1.0
 70
    24
 71
     3
 72
     8
 73
     4
 74
     0
 42
0.00000001
 43
0.00000001
 40
0.0
 40
0.0
 40
0.0
 40
0.0
 40
1.0
 40
1.0
 40
1.0
 40
1.0
 10
6247.671924059019
 20
7259.982586317236
 30
0.0
 10
6247.765126133705
 20
7260.060547801094
 30
0.0
 10
6247.85851237942
 20
7260.138663339962
 30
0.0
 10
6247.935918208553
 20
7260.203411612129
 30
0.0
  0
LINE
  5
CA
330
1F
100
AcDbEntity
  8
0
  6
SLD-Plná
 62
     7
370
    25
100
AcDbLine
 10
6244.1722289142
 20
7255.9651288775
 30
0.0
 11
6244.1722289142
 21
7256.4651288775
 31
0.0
  0
ARC
  5
CB
330
1F
100
AcDbEntity
  8
0
  6
SLD-Plná
 62
     7
370
    25
100
AcDbCircle
 10
6244.1722289142
 20
7256.9651288775
 30
0.0
 40
1.000000000000909
100
AcDbArc
 50
180.0
 51
270.0
  0
LINE
  5
CC
330
1F
100
AcDbEntity
  8
0
  6
SLD-Plná
 62
     7
370
    25
100
AcDbLine
 10
6243.6722289142
 20
7256.9651288775
 30
0.0
 11
6243.1722289142
 21
7256.9651288775
 31
0.0
  0
ARC
  5
CD
330
1F
100
AcDbEntity
  8
0
  6
SLD-Plná
 62
     7
370
    25
100
AcDbCircle
 10
6244.1722289142
 20
7256.9651288775
 30
0.0
 40
0.5
100
AcDbArc
 50
180.0
 51
211.9722820921
  0
ARC
  5
CE
330
1F
100
AcDbEntity
  8
0
  6
SLD-Plná
 62
     7
370
    25
100
AcDbCircle
 10
6244.1722289142
 20
7256.9651288775
 30
0.0
 40
0.8000000000003081
100
AcDbArc
 50
214.9592791039
 51
234.9283175408
  0
SPLINE
  5
CF
330
1F
100
AcDbEntity
  8
0
  6
SLD-Plná
 62
     7
370
    25
100
AcDbSpline
210
0.0
220
0.0
230
1.0
 70
    24
 71
     3
 72
     8
 73
     4
 74
     0
 42
0.00000001
 43
0.00000001
 40
0.0
 40
0.0
 40
0.0
 40
0.0
 40
1.0
 40
1.0
 40
1.0
 40
1.0
 10
6243.956211227947
 20
7256.514200546995
 30
0.0
 10
6243.869024798165
 20
7256.441271017681
 30
0.0
 10
6243.783272781692
 20
7256.369541343524
 30
0.0
 10
6243.71254825483
 20
7256.310381833634
 30
0.0
  0
ARC
  5
D0
330
1F
100
AcDbEntity
  8
0
  6
SLD-Plná
 62
     7
370
    25
100
AcDbCircle
 10
6244.1722289142
 20
7256.9651288775
 30
0.0
 40
0.5
100
AcDbArc
 50
244.4032005004
 51
270.0
  0
SPLINE
  5
D1
330
1F
100
AcDbEntity
  8
0
  6
SLD-Plná
 62
     7
370
    25
100
AcDbSpline
210
0.0
220
0.0
230
1.0
 70
    24
 71
     3
 72
     8
 73
     4
 74
     0
 42
0.00000001
 43
0.00000001
 40
0.0
 40
0.0
 40
0.0
 40
0.0
 40
1.0
 40
1.0
 40
1.0
 40
1.0
 10
6243.51658132535
 20
7256.506733590331
 30
0.0
 10
6243.583484434295
 20
7256.562696568254
 30
0.0
 10
6243.664949609173
 20
7256.630840393782
 30
0.0
 10
6243.748076736511
 20
7256.700374405957
 30
0.0
  0
LINE
  5
D2
330
1F
100
AcDbEntity
  8
0
  6
SLD-Plná
 62
     7
370
    25
100
AcDbLine
 10
6243.6722289142
 20
7259.8359091235
 30
0.0
 11
6243.6722289142
 21
7258.4447212141
 31
0.0
  0
LINE
  5
D3
330
1F
100
AcDbEntity
  8
0
  6
SLD-Plná
 62
     7
370
    25
100
AcDbLine
 10
6246.0876034892
 20
7260.4651288775
 30
0.0
 11
6244.4244540336
 21
7260.4651288775
 31
0.0
  0
LINE
  5
D4
330
1F
100
AcDbEntity
  8
0
  6
SLD-Plná
 62
     7
370
    25
100
AcDbLine
 10
6243.6722289142
 20
7258.4447212141
 30
0.0
 11
6246.0876034892
 21
7260.4651288775
 31
0.0
  0
LINE
  5
D5
330
1F
100
AcDbEntity
  8
0
  6
SLD-Plná
 62
     7
370
    25
100
AcDbLine
 10
6244.4244540336
 20
7260.4651288775
 30
0.0
 11
6243.6722289142
 21
7259.8359091235
 31
0.0
  0
LINE
  5
D6
330
1F
100
AcDbEntity
  8
0
  6
SLD-Plná
 62
     7
370
    25
100
AcDbLine
 10
6244.1722289142
 20
7256.4651288775
 30
0.0
 11
6245.6190215994
 21
7256.4651288775
 31
0.0
  0
LINE
  5
D7
330
1F
100
AcDbEntity
  8
0
  6
SLD-Plná
 62
     7
370
    25
100
AcDbLine
 10
6247.6722289142
 20
7258.1825915999
 30
0.0
 11
6247.6722289142
 21
7259.6225675424
 31
0.0
  0
LINE
  5
D8
330
1F
100
AcDbEntity
  8
0
  6
SLD-Plná
 62
     7
370
    25
100
AcDbLine
 10
6245.6190215994
 20
7256.4651288775
 30
0.0
 11
6247.6722289142
 21
7258.1825915999
 31
0.0
  0
LINE
  5
D9
330
1F
100
AcDbEntity
  8
0
  6
SLD-Plná
 62
     7
370
    25
100
AcDbLine
 10
6247.6722289142
 20
7259.6225675424
 30
0.0
 11
6243.9562112279
 21
7256.514200547
 31
0.0
  0
LINE
  5
DA
330
1F
100
AcDbEntity
  8
0
  6
SLD-Plná
 62
     7
370
    25
100
AcDbLine
 10
6243.3722289142
 20
7257.8335040384
 30
0.0
 11
6243.3722289142
 21
7258.1937778179
 31
0.0
  0
LINE
  5
DB
330
1F
100
AcDbEntity
  8
0
  6
SLD-Plná
 62
     7
370
    25
100
AcDbLine
 10
6243.6722289142
 20
7258.0844474347
 30
0.0
 11
6243.6722289142
 21
7256.9651288775
 31
0.0
  0
LINE
  5
DC
330
1F
100
AcDbEntity
  8
0
  6
SLD-Plná
 62
     7
370
    25
100
AcDbLine
 10
6243.1722289142
 20
7256.9651288775
 30
0.0
 11
6243.1722289142
 21
7259.9651288775
 31
0.0
  0
LINE
  5
DD
330
1F
100
AcDbEntity
  8
0
  6
SLD-Plná
 62
     7
370
    25
100
AcDbLine
 10
6243.3722289142
 20
7259.5849657273
 30
0.0
 11
6243.3722289142
 21
7259.9452395068
 31
0.0
  0
LINE
  5
DE
330
1F
100
AcDbEntity
  8
0
  6
SLD-Plná
 62
     7
370
    25
100
AcDbLine
 10
6243.6722289142
 20
7258.0844474347
 30
0.0
 11
6243.3722289142
 21
7257.8335040384
 31
0.0
  0
LINE
  5
DF
330
1F
100
AcDbEntity
  8
0
  6
SLD-Plná
 62
     7
370
    25
100
AcDbLine
 10
6243.3722289142
 20
7258.1937778179
 30
0.0
 11
6243.6722289142
 21
7258.4447212141
 31
0.0
  0
LINE
  5
E0
330
1F
100
AcDbEntity
  8
0
  6
SLD-Plná
 62
     7
370
    25
100
AcDbLine
 10
6243.6722289142
 20
7259.8359091235
 30
0.0
 11
6243.3722289142
 21
7259.5849657273
 31
0.0
  0
LINE
  5
E1
330
1F
100
AcDbEntity
  8
0
  6
SLD-Plná
 62
     7
370
    25
100
AcDbLine
 10
6243.3722289142
 20
7259.9452395068
 30
0.0
 11
6243.3960064326
 21
7259.9651288775
 31
0.0
  0
LINE
  5
E2
330
1F
100
AcDbEntity
  8
0
  6
SLD-Plná
 62
     7
370
    25
100
AcDbLine
 10
6244.1722289142
 20
7260.9651288775
 30
0.0
 11
6247.1722289142
 21
7260.9651288775
 31
0.0
  0
LINE
  5
E3
330
1F
100
AcDbEntity
  8
0
  6
SLD-Plná
 62
     7
370
    25
100
AcDbLine
 10
6247.1722289142
 20
7260.4651288775
 30
0.0
 11
6246.5183067293
 21
7260.4651288775
 31
0.0
  0
LINE
  5
E4
330
1F
100
AcDbEntity
  8
0
  6
SLD-Plná
 62
     7
370
    25
100
AcDbLine
 10
6246.4462501057
 20
7260.7651288775
 30
0.0
 11
6246.8769533458
 21
7260.7651288775
 31
0.0
  0
LINE
  5
E5
330
1F
100
AcDbEntity
  8
0
  6
SLD-Plná
 62
     7
370
    25
100
AcDbLine
 10
6244.35239741
 20
7260.7651288775
 30
0.0
 11
6244.7831006501
 21
7260.7651288775
 31
0.0
  0
LINE
  5
E6
330
1F
100
AcDbEntity
  8
0
  6
SLD-Plná
 62
     7
370
    25
100
AcDbLine
 10
6246.8769533458
 20
7260.7651288775
 30
0.0
 11
6246.5183067293
 21
7260.4651288775
 31
0.0
  0
LINE
  5
E7
330
1F
100
AcDbEntity
  8
0
  6
SLD-Plná
 62
     7
370
    25
100
AcDbLine
 10
6246.0876034892
 20
7260.4651288775
 30
0.0
 11
6246.4462501057
 21
7260.7651288775
 31
0.0
  0
LINE
  5
E8
330
1F
100
AcDbEntity
  8
0
  6
SLD-Plná
 62
     7
370
    25
100
AcDbLine
 10
6244.7831006501
 20
7260.7651288775
 30
0.0
 11
6244.4244540336
 21
7260.4651288775
 31
0.0
  0
LINE
  5
E9
330
1F
100
AcDbEntity
  8
0
  6
SLD-Plná
 62
     7
370
    25
100
AcDbLine
 10
6244.1722289142
 20
7260.6144218967
 30
0.0
 11
6244.35239741
 21
7260.7651288775
 31
0.0
  0
SPLINE
  5
EA
330
1F
100
AcDbEntity
  8
0
  6
SLD-Plná
 62
     7
370
    25
100
AcDbSpline
210
0.0
220
0.0
230
1.0
 70
    24
 71
     3
 72
     8
 73
     4
 74
     0
 42
0.00000001
 43
0.00000001
 40
0.0
 40
0.0
 40
0.0
 40
0.0
 40
1.0
 40
1.0
 40
1.0
 40
1.0
 10
6247.584883001451
 20
7256.279770136218
 30
0.0
 10
6247.647887784958
 20
7256.332472250722
 30
0.0
 10
6247.710892568462
 20
7256.385174365227
 30
0.0
 10
6247.773897351967
 20
7256.437876479731
 30
0.0
  0
ARC
  5
EB
330
1F
100
AcDbEntity
  8
0
  6
SLD-Plná
 62
     7
370
    25
100
AcDbCircle
 10
6247.1722289142
 20
7256.9651288775
 30
0.0
 40
0.7999999999996823
100
AcDbArc
 50
301.052120789
 51
318.7713588159
  0
ARC
  5
EC
330
1F
100
AcDbEntity
  8
0
  6
SLD-Plná
 62
     7
370
    25
100
AcDbCircle
 10
6247.1722289142
 20
7256.9651288775
 30
0.0
 40
1.0
100
AcDbArc
 50
270.0
 51
0.0
  0
LINE
  5
ED
330
1F
100
AcDbEntity
  8
0
  6
SLD-Plná
 62
     7
370
    25
100
AcDbLine
 10
6247.1722289142
 20
7255.9651288775
 30
0.0
 11
6247.1722289142
 21
7256.4651288775
 31
0.0
  0
ARC
  5
EE
330
1F
100
AcDbEntity
  8
0
  6
SLD-Plná
 62
     7
370
    25
100
AcDbCircle
 10
6247.1722289142
 20
7256.9651288775
 30
0.0
 40
0.5
100
AcDbArc
 50
270.0
 51
0.0
  0
LINE
  5
EF
330
1F
100
AcDbEntity
  8
0
  6
SLD-Plná
 62
     7
370
    25
100
AcDbLine
 10
6248.1722289142
 20
7256.9651288775
 30
0.0
 11
6247.6722289142
 21
7256.9651288775
 31
0.0
  0
LINE
  5
F0
330
1F
100
AcDbEntity
  8
0
  6
SLD-Plná
 62
     7
370
    25
100
AcDbLine
 10
6246.0497248395
 20
7256.4651288775
 30
0.0
 11
6247.1722289142
 21
7256.4651288775
 31
0.0
  0
LINE
  5
F1
330
1F
100
AcDbEntity
  8
0
  6
SLD-Plná
 62
     7
370
    25
100
AcDbLine
 10
6247.6722289142
 20
7256.9651288775
 30
0.0
 11
6247.6722289142
 21
7257.8223178204
 31
0.0
  0
LINE
  5
F2
330
1F
100
AcDbEntity
  8
0
  6
SLD-Plná
 62
     7
370
    25
100
AcDbLine
 10
6247.6722289142
 20
7257.8223178204
 30
0.0
 11
6246.0497248395
 21
7256.4651288775
 31
0.0
  0
LINE
  5
F3
330
1F
100
AcDbEntity
  8
0
  6
SLD-Plná
 62
     7
370
    25
100
AcDbLine
 10
6248.1722289142
 20
7259.9651288775
 30
0.0
 11
6248.1722289142
 21
7256.9651288775
 31
0.0
  0
LINE
  5
F4
330
1F
100
AcDbEntity
  8
0
  6
SLD-Plná
 62
     7
370
    25
100
AcDbLine
 10
6247.9722289142
 20
7258.4335349961
 30
0.0
 11
6247.9722289142
 21
7258.0732612167
 31
0.0
  0
LINE
  5
F5
330
1F
100
AcDbEntity
  8
0
  6
SLD-Plná
 62
     7
370
    25
100
AcDbLine
 10
6247.9722289142
 20
7259.9651288775
 30
0.0
 11
6247.9722289142
 21
7259.8735109386
 31
0.0
  0
LINE
  5
F6
330
1F
100
AcDbEntity
  8
0
  6
SLD-Plná
 62
     7
370
    25
100
AcDbLine
 10
6247.6722289142
 20
7258.1825915999
 30
0.0
 11
6247.9722289142
 21
7258.4335349961
 31
0.0
  0
LINE
  5
F7
330
1F
100
AcDbEntity
  8
0
  6
SLD-Plná
 62
     7
370
    25
100
AcDbLine
 10
6247.9722289142
 20
7258.0732612167
 30
0.0
 11
6247.6722289142
 21
7257.8223178204
 31
0.0
  0
LINE
  5
F8
330
1F
100
AcDbEntity
  8
0
  6
SLD-Plná
 62
     7
370
    25
100
AcDbLine
 10
6247.9722289142
 20
7259.8735109386
 30
0.0
 11
6247.6722289142
 21
7259.6225675424
 31
0.0
  0
LINE
  5
F9
330
1F
100
AcDbEntity
  8
0
  6
SLD-Plná
 62
     7
370
    25
100
AcDbLine
 10
6243.8186755236
 20
7260.3186822681
 30
0.0
 11
6243.8867039023
 21
7260.3755865094
 31
0.0
  0
LINE
  5
FA
330
1F
100
AcDbEntity
  8
0
  6
SLD-Plná
 62
     7
370
    25
100
AcDbLine
 10
6246.5183067293
 20
7260.4651288775
 30
0.0
 11
6243.6722289142
 21
7258.0844474347
 31
0.0
  0
LINE
  5
FB
330
1F
100
AcDbEntity
  8
0
  6
SLD-Plná
 62
     7
370
    25
100
AcDbLine
 10
6243.7480767365
 20
7256.700374406
 30
0.0
 11
6247.671924059
 21
7259.9825863172
 31
0.0
  0
LINE
  5
FC
330
1F
100
AcDbEntity
  8
0
  6
SLD-Plná
 62
     7
370
    25
100
AcDbLine
 10
6247.1722289142
 20
7255.9651288775
 30
0.0
 11
6244.1722289142
 21
7255.9651288775
 31
0.0
  0
LINE
  5
FD
330
1F
100
AcDbEntity
  8
0
  6
SLD-Plná
 62
     7
370
    25
100
AcDbLine
 10
6245.691078223
 20
7256.1651288775
 30
0.0
 11
6245.2603749828
 21
7256.1651288775
 31
0.0
  0
LINE
  5
FE
330
1F
100
AcDbEntity
  8
0
  6
SLD-Plná
 62
     7
370
    25
100
AcDbLine
 10
6245.2603749828
 20
7256.1651288775
 30
0.0
 11
6245.6190215994
 21
7256.4651288775
 31
0.0
  0
LINE
  5
FF
330
1F
100
AcDbEntity
  8
0
  6
SLD-Plná
 62
     7
370
    25
100
AcDbLine
 10
6246.0497248395
 20
7256.4651288775
 30
0.0
 11
6245.691078223
 21
7256.1651288775
 31
0.0
  0
ARC
  5
100
330
1F
100
AcDbEntity
  8
0
  6
SLD-Plná
 62
     7
370
    25
100
AcDbCircle
 10
6242.6722289142
 20
7271.4651288775
 30
0.0
 40
1.0
100
AcDbArc
 50
90.0
 51
180.0
  0
LINE
  5
101
330
1F
100
AcDbEntity
  8
0
  6
SLD-Plná
 62
     7
370
    25
100
AcDbLine
 10
6242.6722289142
 20
7272.1266356768
 30
0.0
 11
6242.6722289142
 21
7272.4651288775
 31
0.0
  0
SPLINE
  5
102
330
1F
100
AcDbEntity
  8
0
  6
SLD-Plná
 62
     7
370
    25
100
AcDbSpline
210
0.0
220
0.0
230
1.0
 70
    24
 71
     3
 72
    14
 73
    10
 74
     0
 42
0.00000001
 43
0.00000001
 40
0.0
 40
0.0
 40
0.0
 40
0.0
 40
0.25
 40
0.25
 40
0.5
 40
0.5
 40
0.75
 40
0.75
 40
1.0
 40
1.0
 40
1.0
 40
1.0
 10
6241.881404996129
 20
7271.465128877492
 30
0.0
 10
6241.940899995912
 20
7271.514895135171
 30
0.0
 10
6242.006114519061
 20
7271.569445648246
 30
0.0
 10
6242.139158988353
 20
7271.680734418156
 30
0.0
 10
6242.205843291145
 20
7271.73651436955
 30
0.0
 10
6242.339241670933
 20
7271.8480991778
 30
0.0
 10
6242.405942719964
 20
7271.903893137051
 30
0.0
 10
6242.539410523842
 20
7272.015536017025
 30
0.0
 10
6242.60664525408
 20
7272.07177638886
 30
0.0
 10
6242.672228914158
 20
7272.126635676848
 30
0.0
  0
LINE
  5
103
330
1F
100
AcDbEntity
  8
0
  6
SLD-Plná
 62
     7
370
    25
100
AcDbLine
 10
6241.8814049961
 20
7271.4651288775
 30
0.0
 11
6241.6722289142
 21
7271.4651288775
 31
0.0
  0
LINE
  5
104
330
1F
100
AcDbEntity
  8
0
  6
SLD-Plná
 62
     7
370
    25
100
AcDbLine
 10
6242.6722289142
 20
7264.4651288775
 30
0.0
 11
6242.6722289142
 21
7264.6651288775
 31
0.0
  0
ARC
  5
105
330
1F
100
AcDbEntity
  8
0
  6
SLD-Plná
 62
     7
370
    25
100
AcDbCircle
 10
6242.6722289142
 20
7265.4651288775
 30
0.0
 40
1.0
100
AcDbArc
 50
180.0
 51
270.0
  0
LINE
  5
106
330
1F
100
AcDbEntity
  8
0
  6
SLD-Plná
 62
     7
370
    25
100
AcDbLine
 10
6242.1722289142
 20
7265.4651288775
 30
0.0
 11
6241.6722289142
 21
7265.4651288775
 31
0.0
  0
ARC
  5
107
330
1F
100
AcDbEntity
  8
0
  6
SLD-Plná
 62
     7
370
    25
100
AcDbCircle
 10
6242.6722289142
 20
7265.4651288775
 30
0.0
 40
0.5
100
AcDbArc
 50
180.0
 51
270.0
  0
LINE
  5
108
330
1F
100
AcDbEntity
  8
0
  6
SLD-Plná
 62
     7
370
    25
100
AcDbLine
 10
6242.6722289142
 20
7264.9220588691
 30
0.0
 11
6242.6722289142
 21
7264.9651288775
 31
0.0
  0
ARC
  5
109
330
1F
100
AcDbEntity
  8
0
  6
SLD-Plná
 62
     7
370
    25
100
AcDbCircle
 10
6242.6722289142
 20
7265.4651288775
 30
0.0
 40
0.7999999999998021
100
AcDbArc
 50
251.2903704121
 51
270.0
  0
SPLINE
  5
10A
330
1F
100
AcDbEntity
  8
0
  6
SLD-Plná
 62
     7
370
    25
100
AcDbSpline
210
0.0
220
0.0
230
1.0
 70
    24
 71
     3
 72
     8
 73
     4
 74
     0
 42
0.00000001
 43
0.00000001
 40
0.0
 40
0.0
 40
0.0
 40
0.0
 40
1.0
 40
1.0
 40
1.0
 40
1.0
 10
6242.415611168713
 20
7264.707403773828
 30
0.0
 10
6242.492340036033
 20
7264.77158578234
 30
0.0
 10
6242.581629468419
 20
7264.846274427042
 30
0.0
 10
6242.672228914158
 20
7264.922058869074
 30
0.0
  0
LINE
  5
10B
330
1F
100
AcDbEntity
  8
0
  6
SLD-Plná
 62
     7
370
    25
100
AcDbLine
 10
6248.6722289142
 20
7271.9651288775
 30
0.0
 11
6248.6722289142
 21
7272.4651288775
 31
0.0
  0
ARC
  5
10C
330
1F
100
AcDbEntity
  8
0
  6
SLD-Plná
 62
     7
370
    25
100
AcDbCircle
 10
6248.6722289142
 20
7271.4651288775
 30
0.0
 40
1.0
100
AcDbArc
 50
0.0
 51
90.0
  0
LINE
  5
10D
330
1F
100
AcDbEntity
  8
0
  6
SLD-Plná
 62
     7
370
    25
100
AcDbLine
 10
6249.6722289142
 20
7271.4651288775
 30
0.0
 11
6249.1722289142
 21
7271.4651288775
 31
0.0
  0
ARC
  5
10E
330
1F
100
AcDbEntity
  8
0
  6
SLD-Plná
 62
     7
370
    25
100
AcDbCircle
 10
6248.6722289142
 20
7271.4651288775
 30
0.0
 40
0.4999999999997058
100
AcDbArc
 50
0.0
 51
42.5842567224
  0
SPLINE
  5
10F
330
1F
100
AcDbEntity
  8
0
  6
SLD-Plná
 62
     7
370
    25
100
AcDbSpline
210
0.0
220
0.0
230
1.0
 70
    24
 71
     3
 72
     8
 73
     4
 74
     0
 42
0.00000001
 43
0.00000001
 40
0.0
 40
0.0
 40
0.0
 40
0.0
 40
1.0
 40
1.0
 40
1.0
 40
1.0
 10
6249.270637058429
 20
7271.996078680081
 30
0.0
 10
6249.204128340451
 20
7271.940445601521
 30
0.0
 10
6249.123110397359
 20
7271.872675875537
 30
0.0
 10
6249.040370437115
 20
7271.803465720113
 30
0.0
  0
ARC
  5
110
330
1F
100
AcDbEntity
  8
0
  6
SLD-Plná
 62
     7
370
    25
100
AcDbCircle
 10
6248.6722289142
 20
7271.4651288775
 30
0.0
 40
0.7999999999996095
100
AcDbArc
 50
41.5816936888
 51
61.9094619242
  0
ARC
  5
111
330
1F
100
AcDbEntity
  8
0
  6
SLD-Plná
 62
     7
370
    25
100
AcDbCircle
 10
6248.6722289142
 20
7271.4651288775
 30
0.0
 40
0.4999999999991378
100
AcDbArc
 50
76.732348211
 51
90.0
  0
SPLINE
  5
112
330
1F
100
AcDbEntity
  8
0
  6
SLD-Plná
 62
     7
370
    25
100
AcDbSpline
210
0.0
220
0.0
230
1.0
 70
    24
 71
     3
 72
     8
 73
     4
 74
     0
 42
0.00000001
 43
0.00000001
 40
0.0
 40
0.0
 40
0.0
 40
0.0
 40
1.0
 40
1.0
 40
1.0
 40
1.0
 10
6248.786979044413
 20
7271.951783177386
 30
0.0
 10
6248.87861813474
 20
7272.028437259232
 30
0.0
 10
6248.972324883911
 20
7272.106820892187
 30
0.0
 10
6249.04892187323
 20
7272.170892587656
 30
0.0
  0
LINE
  5
113
330
1F
100
AcDbEntity
  8
0
  6
SLD-Plná
 62
     7
370
    25
100
AcDbLine
 10
6242.6722289142
 20
7272.4651288775
 30
0.0
 11
6248.6722289142
 21
7272.4651288775
 31
0.0
  0
LINE
  5
114
330
1F
100
AcDbEntity
  8
0
  6
SLD-Plná
 62
     7
370
    25
100
AcDbLine
 10
6248.6722289142
 20
7271.9651288775
 30
0.0
 11
6247.1575243145
 21
7271.9651288775
 31
0.0
  0
LINE
  5
115
330
1F
100
AcDbEntity
  8
0
  6
SLD-Plná
 62
     7
370
    25
100
AcDbLine
 10
6247.5161709311
 20
7272.2651288775
 30
0.0
 11
6247.1575243145
 21
7271.9651288775
 31
0.0
  0
LINE
  5
116
330
1F
100
AcDbEntity
  8
0
  6
SLD-Plná
 62
     7
370
    25
100
AcDbLine
 10
6247.085467691
 20
7272.2651288775
 30
0.0
 11
6247.5161709311
 21
7272.2651288775
 31
0.0
  0
LINE
  5
117
330
1F
100
AcDbEntity
  8
0
  6
SLD-Plná
 62
     7
370
    25
100
AcDbLine
 10
6246.7268210744
 20
7271.9651288775
 30
0.0
 11
6247.085467691
 21
7272.2651288775
 31
0.0
  0
LINE
  5
118
330
1F
100
AcDbEntity
  8
0
  6
SLD-Plná
 62
     7
370
    25
100
AcDbLine
 10
6246.7268210744
 20
7271.9651288775
 30
0.0
 11
6244.8334320135
 21
7271.9651288775
 31
0.0
  0
LINE
  5
119
330
1F
100
AcDbEntity
  8
0
  6
SLD-Plná
 62
     7
370
    25
100
AcDbLine
 10
6245.19207863
 20
7272.2651288775
 30
0.0
 11
6244.8334320135
 21
7271.9651288775
 31
0.0
  0
LINE
  5
11A
330
1F
100
AcDbEntity
  8
0
  6
SLD-Plná
 62
     7
370
    25
100
AcDbLine
 10
6244.7613753899
 20
7272.2651288775
 30
0.0
 11
6245.19207863
 21
7272.2651288775
 31
0.0
  0
LINE
  5
11B
330
1F
100
AcDbEntity
  8
0
  6
SLD-Plná
 62
     7
370
    25
100
AcDbLine
 10
6244.4027287734
 20
7271.9651288775
 30
0.0
 11
6244.7613753899
 21
7272.2651288775
 31
0.0
  0
LINE
  5
11C
330
1F
100
AcDbEntity
  8
0
  6
SLD-Plná
 62
     7
370
    25
100
AcDbLine
 10
6244.4027287734
 20
7271.9651288775
 30
0.0
 11
6242.9031978911
 21
7271.9651288775
 31
0.0
  0
LINE
  5
11D
330
1F
100
AcDbEntity
  8
0
  6
SLD-Plná
 62
     7
370
    25
100
AcDbLine
 10
6243.2611520164
 20
7272.2651288775
 30
0.0
 11
6242.9031978911
 21
7271.9651288775
 31
0.0
  0
LINE
  5
11E
330
1F
100
AcDbEntity
  8
0
  6
SLD-Plná
 62
     7
370
    25
100
AcDbLine
 10
6242.8377959736
 20
7272.2651288775
 30
0.0
 11
6243.2611520164
 21
7272.2651288775
 31
0.0
  0
LINE
  5
11F
330
1F
100
AcDbEntity
  8
0
  6
SLD-Plná
 62
     7
370
    25
100
AcDbLine
 10
6242.6722289142
 20
7272.1266356768
 30
0.0
 11
6242.8377959736
 21
7272.2651288775
 31
0.0
  0
LINE
  5
120
330
1F
100
AcDbEntity
  8
0
  6
SLD-Plná
 62
     7
370
    25
100
AcDbLine
 10
6242.1722289142
 20
7270.0993648443
 30
0.0
 11
6244.4027287734
 21
7271.9651288775
 31
0.0
  0
LINE
  5
121
330
1F
100
AcDbEntity
  8
0
  6
SLD-Plná
 62
     7
370
    25
100
AcDbLine
 10
6242.1722289142
 20
7271.3525065397
 30
0.0
 11
6242.1722289142
 21
7270.0993648443
 31
0.0
  0
LINE
  5
122
330
1F
100
AcDbEntity
  8
0
  6
SLD-Plná
 62
     7
370
    25
100
AcDbLine
 10
6242.9031978911
 20
7271.9651288775
 30
0.0
 11
6242.1722289142
 21
7271.3525065397
 31
0.0
  0
LINE
  5
123
330
1F
100
AcDbEntity
  8
0
  6
SLD-Plná
 62
     7
370
    25
100
AcDbLine
 10
6249.1722289142
 20
7270.3591657873
 30
0.0
 11
6249.1722289142
 21
7271.4651288775
 31
0.0
  0
LINE
  5
124
330
1F
100
AcDbEntity
  8
0
  6
SLD-Plná
 62
     7
370
    25
100
AcDbLine
 10
6242.6722289142
 20
7264.9651288775
 30
0.0
 11
6242.7237186235
 21
7264.9651288775
 31
0.0
  0
LINE
  5
125
330
1F
100
AcDbEntity
  8
0
  6
SLD-Plná
 62
     7
370
    25
100
AcDbLine
 10
6242.1722289142
 20
7266.0584165217
 30
0.0
 11
6242.1722289142
 21
7265.4651288775
 31
0.0
  0
LINE
  5
126
330
1F
100
AcDbEntity
  8
0
  6
SLD-Plná
 62
     7
370
    25
100
AcDbLine
 10
6249.0403704371
 20
7271.8034657201
 30
0.0
 11
6242.1722289142
 21
7266.0584165217
 31
0.0
  0
LINE
  5
127
330
1F
100
AcDbEntity
  8
0
  6
SLD-Plná
 62
     7
370
    25
100
AcDbLine
 10
6242.7237186235
 20
7264.9651288775
 30
0.0
 11
6249.1722289142
 21
7270.3591657873
 31
0.0
  0
LINE
  5
128
330
1F
100
AcDbEntity
  8
0
  6
SLD-Plná
 62
     7
370
    25
100
AcDbLine
 10
6242.6722289142
 20
7264.9220588691
 30
0.0
 11
6242.7237186235
 21
7264.9651288775
 31
0.0
  0
LINE
  5
129
330
1F
100
AcDbEntity
  8
0
  6
SLD-Plná
 62
     7
370
    25
100
AcDbLine
 10
6244.6254326197
 20
7264.6651288775
 30
0.0
 11
6244.9840792362
 21
7264.9651288775
 31
0.0
  0
LINE
  5
12A
330
1F
100
AcDbEntity
  8
0
  6
SLD-Plná
 62
     7
370
    25
100
AcDbLine
 10
6245.0561358598
 20
7264.6651288775
 30
0.0
 11
6244.6254326197
 21
7264.6651288775
 31
0.0
  0
LINE
  5
12B
330
1F
100
AcDbEntity
  8
0
  6
SLD-Plná
 62
     7
370
    25
100
AcDbLine
 10
6245.4147824763
 20
7264.9651288775
 30
0.0
 11
6245.0561358598
 21
7264.6651288775
 31
0.0
  0
LINE
  5
12C
330
1F
100
AcDbEntity
  8
0
  6
SLD-Plná
 62
     7
370
    25
100
AcDbLine
 10
6245.4147824763
 20
7264.9651288775
 30
0.0
 11
6247.3829237316
 21
7264.9651288775
 31
0.0
  0
LINE
  5
12D
330
1F
100
AcDbEntity
  8
0
  6
SLD-Plná
 62
     7
370
    25
100
AcDbLine
 10
6247.024277115
 20
7264.6651288775
 30
0.0
 11
6247.3829237316
 21
7264.9651288775
 31
0.0
  0
LINE
  5
12E
330
1F
100
AcDbEntity
  8
0
  6
SLD-Plná
 62
     7
370
    25
100
AcDbLine
 10
6247.4549803552
 20
7264.6651288775
 30
0.0
 11
6247.024277115
 21
7264.6651288775
 31
0.0
  0
LINE
  5
12F
330
1F
100
AcDbEntity
  8
0
  6
SLD-Plná
 62
     7
370
    25
100
AcDbLine
 10
6247.8136269717
 20
7264.9651288775
 30
0.0
 11
6247.4549803552
 21
7264.6651288775
 31
0.0
  0
LINE
  5
130
330
1F
100
AcDbEntity
  8
0
  6
SLD-Plná
 62
     7
370
    25
100
AcDbLine
 10
6247.8136269717
 20
7264.9651288775
 30
0.0
 11
6248.6722289142
 21
7264.9651288775
 31
0.0
  0
LINE
  5
131
330
1F
100
AcDbEntity
  8
0
  6
SLD-Plná
 62
     7
370
    25
100
AcDbLine
 10
6248.6722289142
 20
7264.4651288775
 30
0.0
 11
6248.6722289142
 21
7264.9651288775
 31
0.0
  0
LINE
  5
132
330
1F
100
AcDbEntity
  8
0
  6
SLD-Plná
 62
     7
370
    25
100
AcDbLine
 10
6248.6722289142
 20
7264.4651288775
 30
0.0
 11
6242.6722289142
 21
7264.4651288775
 31
0.0
  0
LINE
  5
133
330
1F
100
AcDbEntity
  8
0
  6
SLD-Plná
 62
     7
370
    25
100
AcDbLine
 10
6242.795775247
 20
7264.6651288775
 30
0.0
 11
6242.6722289142
 21
7264.6651288775
 31
0.0
  0
LINE
  5
134
330
1F
100
AcDbEntity
  8
0
  6
SLD-Plná
 62
     7
370
    25
100
AcDbLine
 10
6243.1544218636
 20
7264.9651288775
 30
0.0
 11
6242.795775247
 21
7264.6651288775
 31
0.0
  0
LINE
  5
135
330
1F
100
AcDbEntity
  8
0
  6
SLD-Plná
 62
     7
370
    25
100
AcDbLine
 10
6243.1544218636
 20
7264.9651288775
 30
0.0
 11
6244.9840792362
 21
7264.9651288775
 31
0.0
  0
LINE
  5
136
330
1F
100
AcDbEntity
  8
0
  6
SLD-Plná
 62
     7
370
    25
100
AcDbLine
 10
6249.6722289142
 20
7271.4651288775
 30
0.0
 11
6249.6722289142
 21
7265.4651288775
 31
0.0
  0
LINE
  5
137
330
1F
100
AcDbEntity
  8
0
  6
SLD-Plná
 62
     7
370
    25
100
AcDbLine
 10
6249.6722289142
 20
7265.4651288775
 30
0.0
 11
6249.1722289142
 21
7265.4651288775
 31
0.0
  0
LINE
  5
138
330
1F
100
AcDbEntity
  8
0
  6
SLD-Plná
 62
     7
370
    25
100
AcDbLine
 10
6249.1722289142
 20
7265.4651288775
 30
0.0
 11
6249.1722289142
 21
7266.101569496
 31
0.0
  0
LINE
  5
139
330
1F
100
AcDbEntity
  8
0
  6
SLD-Plná
 62
     7
370
    25
100
AcDbLine
 10
6249.4722289142
 20
7266.3525128923
 30
0.0
 11
6249.1722289142
 21
7266.101569496
 31
0.0
  0
LINE
  5
13A
330
1F
100
AcDbEntity
  8
0
  6
SLD-Plná
 62
     7
370
    25
100
AcDbLine
 10
6249.4722289142
 20
7266.7127866717
 30
0.0
 11
6249.4722289142
 21
7266.3525128923
 31
0.0
  0
LINE
  5
13B
330
1F
100
AcDbEntity
  8
0
  6
SLD-Plná
 62
     7
370
    25
100
AcDbLine
 10
6249.1722289142
 20
7266.4618432755
 30
0.0
 11
6249.4722289142
 21
7266.7127866717
 31
0.0
  0
LINE
  5
13C
330
1F
100
AcDbEntity
  8
0
  6
SLD-Plná
 62
     7
370
    25
100
AcDbLine
 10
6249.1722289142
 20
7266.4618432755
 30
0.0
 11
6249.1722289142
 21
7268.1081501116
 31
0.0
  0
LINE
  5
13D
330
1F
100
AcDbEntity
  8
0
  6
SLD-Plná
 62
     7
370
    25
100
AcDbLine
 10
6249.4722289142
 20
7268.3590935079
 30
0.0
 11
6249.1722289142
 21
7268.1081501116
 31
0.0
  0
LINE
  5
13E
330
1F
100
AcDbEntity
  8
0
  6
SLD-Plná
 62
     7
370
    25
100
AcDbLine
 10
6249.4722289142
 20
7268.7193672873
 30
0.0
 11
6249.4722289142
 21
7268.3590935079
 31
0.0
  0
LINE
  5
13F
330
1F
100
AcDbEntity
  8
0
  6
SLD-Plná
 62
     7
370
    25
100
AcDbLine
 10
6249.1722289142
 20
7268.4684238911
 30
0.0
 11
6249.4722289142
 21
7268.7193672873
 31
0.0
  0
LINE
  5
140
330
1F
100
AcDbEntity
  8
0
  6
SLD-Plná
 62
     7
370
    25
100
AcDbLine
 10
6249.1722289142
 20
7268.4684238911
 30
0.0
 11
6249.1722289142
 21
7269.9988920078
 31
0.0
  0
LINE
  5
141
330
1F
100
AcDbEntity
  8
0
  6
SLD-Plná
 62
     7
370
    25
100
AcDbLine
 10
6249.4722289142
 20
7270.2498354041
 30
0.0
 11
6249.1722289142
 21
7269.9988920078
 31
0.0
  0
LINE
  5
142
330
1F
100
AcDbEntity
  8
0
  6
SLD-Plná
 62
     7
370
    25
100
AcDbLine
 10
6249.4722289142
 20
7270.6101091835
 30
0.0
 11
6249.4722289142
 21
7270.2498354041
 31
0.0
  0
LINE
  5
143
330
1F
100
AcDbEntity
  8
0
  6
SLD-Plná
 62
     7
370
    25
100
AcDbLine
 10
6249.1722289142
 20
7270.3591657873
 30
0.0
 11
6249.4722289142
 21
7270.6101091835
 31
0.0
  0
ARC
  5
144
330
1F
100
AcDbEntity
  8
0
  6
SLD-Plná
 62
     7
370
    25
100
AcDbCircle
 10
6248.6722289142
 20
7265.4651288775
 30
0.0
 40
1.0
100
AcDbArc
 50
270.0
 51
0.0
  0
ARC
  5
145
330
1F
100
AcDbEntity
  8
0
  6
SLD-Plná
 62
     7
370
    25
100
AcDbCircle
 10
6248.6722289142
 20
7265.4651288775
 30
0.0
 40
0.5
100
AcDbArc
 50
270.0
 51
0.0
  0
LINE
  5
146
330
1F
100
AcDbEntity
  8
0
  6
SLD-Plná
 62
     7
370
    25
100
AcDbLine
 10
6242.1722289142
 20
7268.1553127938
 30
0.0
 11
6246.7268210744
 21
7271.9651288775
 31
0.0
  0
LINE
  5
147
330
1F
100
AcDbEntity
  8
0
  6
SLD-Plná
 62
     7
370
    25
100
AcDbLine
 10
6242.1722289142
 20
7269.7390910648
 30
0.0
 11
6242.1722289142
 21
7268.1553127938
 31
0.0
  0
LINE
  5
148
330
1F
100
AcDbEntity
  8
0
  6
SLD-Plná
 62
     7
370
    25
100
AcDbLine
 10
6244.8334320135
 20
7271.9651288775
 30
0.0
 11
6242.1722289142
 21
7269.7390910648
 31
0.0
  0
LINE
  5
149
330
1F
100
AcDbEntity
  8
0
  6
SLD-Plná
 62
     7
370
    25
100
AcDbLine
 10
6249.1722289142
 20
7266.101569496
 30
0.0
 11
6247.8136269717
 21
7264.9651288775
 31
0.0
  0
LINE
  5
14A
330
1F
100
AcDbEntity
  8
0
  6
SLD-Plná
 62
     7
370
    25
100
AcDbLine
 10
6241.8722289142
 20
7269.4881476686
 30
0.0
 11
6241.8722289142
 21
7269.8484214481
 31
0.0
  0
LINE
  5
14B
330
1F
100
AcDbEntity
  8
0
  6
SLD-Plná
 62
     7
370
    25
100
AcDbLine
 10
6241.8722289142
 20
7267.9043693975
 30
0.0
 11
6242.1722289142
 21
7268.1553127938
 31
0.0
  0
LINE
  5
14C
330
1F
100
AcDbEntity
  8
0
  6
SLD-Plná
 62
     7
370
    25
100
AcDbLine
 10
6241.8722289142
 20
7267.5440956181
 30
0.0
 11
6241.8722289142
 21
7267.9043693975
 31
0.0
  0
LINE
  5
14D
330
1F
100
AcDbEntity
  8
0
  6
SLD-Plná
 62
     7
370
    25
100
AcDbLine
 10
6242.1722289142
 20
7267.7950390143
 30
0.0
 11
6241.8722289142
 21
7267.5440956181
 31
0.0
  0
LINE
  5
14E
330
1F
100
AcDbEntity
  8
0
  6
SLD-Plná
 62
     7
370
    25
100
AcDbLine
 10
6242.1722289142
 20
7267.7950390143
 30
0.0
 11
6242.1722289142
 21
7266.4186903011
 31
0.0
  0
LINE
  5
14F
330
1F
100
AcDbEntity
  8
0
  6
SLD-Plná
 62
     7
370
    25
100
AcDbLine
 10
6241.8722289142
 20
7265.8074731254
 30
0.0
 11
6241.8722289142
 21
7266.1677469049
 31
0.0
  0
LINE
  5
150
330
1F
100
AcDbEntity
  8
0
  6
SLD-Plná
 62
     7
370
    25
100
AcDbLine
 10
6241.6722289142
 20
7265.4651288775
 30
0.0
 11
6241.6722289142
 21
7271.4651288775
 31
0.0
  0
LINE
  5
151
330
1F
100
AcDbEntity
  8
0
  6
SLD-Plná
 62
     7
370
    25
100
AcDbLine
 10
6241.8722289142
 20
7271.1010776731
 30
0.0
 11
6241.8722289142
 21
7271.4574532869
 31
0.0
  0
LINE
  5
152
330
1F
100
AcDbEntity
  8
0
  6
SLD-Plná
 62
     7
370
    25
100
AcDbLine
 10
6242.1722289142
 20
7271.3525065397
 30
0.0
 11
6241.8722289142
 21
7271.1010776731
 31
0.0
  0
LINE
  5
153
330
1F
100
AcDbEntity
  8
0
  6
SLD-Plná
 62
     7
370
    25
100
AcDbLine
 10
6242.1722289142
 20
7269.7390910648
 30
0.0
 11
6241.8722289142
 21
7269.4881476686
 31
0.0
  0
LINE
  5
154
330
1F
100
AcDbEntity
  8
0
  6
SLD-Plná
 62
     7
370
    25
100
AcDbLine
 10
6241.8722289142
 20
7269.8484214481
 30
0.0
 11
6242.1722289142
 21
7270.0993648443
 31
0.0
  0
LINE
  5
155
330
1F
100
AcDbEntity
  8
0
  6
SLD-Plná
 62
     7
370
    25
100
AcDbLine
 10
6242.1722289142
 20
7266.0584165217
 30
0.0
 11
6241.8722289142
 21
7265.8074731254
 31
0.0
  0
LINE
  5
156
330
1F
100
AcDbEntity
  8
0
  6
SLD-Plná
 62
     7
370
    25
100
AcDbLine
 10
6241.8722289142
 20
7266.1677469049
 30
0.0
 11
6242.1722289142
 21
7266.4186903011
 31
0.0
  0
LINE
  5
157
330
1F
100
AcDbEntity
  8
0
  6
SLD-Plná
 62
     7
370
    25
100
AcDbLine
 10
6241.8722289142
 20
7271.4574532869
 30
0.0
 11
6241.8814049961
 21
7271.4651288775
 31
0.0
  0
LINE
  5
158
330
1F
100
AcDbEntity
  8
0
  6
SLD-Plná
 62
     7
370
    25
100
AcDbLine
 10
6247.1575243145
 20
7271.9651288775
 30
0.0
 11
6242.1722289142
 21
7267.7950390143
 31
0.0
  0
LINE
  5
159
330
1F
100
AcDbEntity
  8
0
  6
SLD-Plná
 62
     7
370
    25
100
AcDbLine
 10
6242.1722289142
 20
7266.4186903011
 30
0.0
 11
6248.7869790444
 21
7271.9517831774
 31
0.0
  0
LINE
  5
15A
330
1F
100
AcDbEntity
  8
0
  6
SLD-Plná
 62
     7
370
    25
100
AcDbLine
 10
6247.3829237316
 20
7264.9651288775
 30
0.0
 11
6249.1722289142
 21
7266.4618432755
 31
0.0
  0
LINE
  5
15B
330
1F
100
AcDbEntity
  8
0
  6
SLD-Plná
 62
     7
370
    25
100
AcDbLine
 10
6249.1722289142
 20
7268.1081501116
 30
0.0
 11
6245.4147824763
 21
7264.9651288775
 31
0.0
  0
LINE
  5
15C
330
1F
100
AcDbEntity
  8
0
  6
SLD-Plná
 62
     7
370
    25
100
AcDbLine
 10
6244.9840792362
 20
7264.9651288775
 30
0.0
 11
6249.1722289142
 21
7268.4684238911
 31
0.0
  0
LINE
  5
15D
330
1F
100
AcDbEntity
  8
0
  6
SLD-Plná
 62
     7
370
    25
100
AcDbLine
 10
6249.1722289142
 20
7269.9988920078
 30
0.0
 11
6243.1544218636
 21
7264.9651288775
 31
0.0
  0
ARC
  5
15E
330
1F
100
AcDbEntity
  8
0
  6
SLD-Plná
 62
     7
370
    25
100
AcDbCircle
 10
6244.1722289142
 20
7279.9651288775
 30
0.0
 40
1.000000000000909
100
AcDbArc
 50
90.0
 51
180.0
  0
LINE
  5
15F
330
1F
100
AcDbEntity
  8
0
  6
SLD-Plná
 62
     7
370
    25
100
AcDbLine
 10
6244.1722289142
 20
7280.6144218967
 30
0.0
 11
6244.1722289142
 21
7280.9651288775
 31
0.0
  0
ARC
  5
160
330
1F
100
AcDbEntity
  8
0
  6
SLD-Plná
 62
     7
370
    25
100
AcDbCircle
 10
6244.1722289142
 20
7279.9651288775
 30
0.0
 40
0.5000000000009307
100
AcDbArc
 50
124.8234796037
 51
135.0
  0
LINE
  5
161
330
1F
100
AcDbEntity
  8
0
  6
SLD-Plná
 62
     7
370
    25
100
AcDbLine
 10
6243.3960064326
 20
7279.9651288775
 30
0.0
 11
6243.1722289142
 21
7279.9651288775
 31
0.0
  0
SPLINE
  5
162
330
1F
100
AcDbEntity
  8
0
  6
SLD-Plná
 62
     7
370
    25
100
AcDbSpline
210
0.0
220
0.0
230
1.0
 70
    24
 71
     3
 72
    10
 73
     6
 74
     0
 42
0.00000001
 43
0.00000001
 40
0.0
 40
0.0
 40
0.0
 40
0.0
 40
0.5
 40
0.5
 40
1.0
 40
1.0
 40
1.0
 40
1.0
 10
6243.396006432555
 20
7279.965128877491
 30
0.0
 10
6243.461011239624
 20
7280.019503967682
 30
0.0
 10
6243.532296813181
 20
7280.079132780784
 30
0.0
 10
6243.675532110251
 20
7280.198945953804
 30
0.0
 10
6243.747101991587
 20
7280.258812584103
 30
0.0
 10
6243.818675523565
 20
7280.318682268085
 30
0.0
  0
SPLINE
  5
163
330
1F
100
AcDbEntity
  8
0
  6
SLD-Plná
 62
     7
370
    25
100
AcDbSpline
210
0.0
220
0.0
230
1.0
 70
    24
 71
     3
 72
     8
 73
     4
 74
     0
 42
0.00000001
 43
0.00000001
 40
0.0
 40
0.0
 40
0.0
 40
0.0
 40
1.0
 40
1.0
 40
1.0
 40
1.0
 10
6243.886703902289
 20
7280.375586509407
 30
0.0
 10
6243.981913172465
 20
7280.455226968109
 30
0.0
 10
6244.077131808841
 20
7280.53487526143
 30
0.0
 10
6244.172228914158
 20
7280.614421896695
 30
0.0
  0
LINE
  5
164
330
1F
100
AcDbEntity
  8
0
  6
SLD-Plná
 62
     7
370
    25
100
AcDbLine
 10
6247.1722289142
 20
7280.4651288775
 30
0.0
 11
6247.1722289142
 21
7280.9651288775
 31
0.0
  0
ARC
  5
165
330
1F
100
AcDbEntity
  8
0
  6
SLD-Plná
 62
     7
370
    25
100
AcDbCircle
 10
6247.1722289142
 20
7279.9651288775
 30
0.0
 40
1.0
100
AcDbArc
 50
0.0
 51
90.0
  0
LINE
  5
166
330
1F
100
AcDbEntity
  8
0
  6
SLD-Plná
 62
     7
370
    25
100
AcDbLine
 10
6248.1722289142
 20
7279.9651288775
 30
0.0
 11
6247.6722289142
 21
7279.9651288775
 31
0.0
  0
ARC
  5
167
330
1F
100
AcDbEntity
  8
0
  6
SLD-Plná
 62
     7
370
    25
100
AcDbCircle
 10
6247.1722289142
 20
7279.9651288775
 30
0.0
 40
0.5000000000006036
100
AcDbArc
 50
0.0
 51
30.6705754254
  0
SPLINE
  5
168
330
1F
100
AcDbEntity
  8
0
  6
SLD-Plná
 62
     7
370
    25
100
AcDbSpline
210
0.0
220
0.0
230
1.0
 70
    24
 71
     3
 72
     8
 73
     4
 74
     0
 42
0.00000001
 43
0.00000001
 40
0.0
 40
0.0
 40
0.0
 40
0.0
 40
1.0
 40
1.0
 40
1.0
 40
1.0
 10
6247.834275169432
 20
7280.414233270566
 30
0.0
 10
6247.767213665334
 20
7280.358137798585
 30
0.0
 10
6247.685568936879
 20
7280.289843780444
 30
0.0
 10
6247.602286089372
 20
7280.220179511773
 30
0.0
  0
ARC
  5
169
330
1F
100
AcDbEntity
  8
0
  6
SLD-Plná
 62
     7
370
    25
100
AcDbCircle
 10
6247.1722289142
 20
7279.9651288775
 30
0.0
 40
0.800000000000627
100
AcDbArc
 50
34.1513217774
 51
54.0970419767
  0
SPLINE
  5
16A
330
1F
100
AcDbEntity
  8
0
  6
SLD-Plná
 62
     7
370
    25
100
AcDbSpline
210
0.0
220
0.0
230
1.0
 70
    24
 71
     3
 72
     8
 73
     4
 74
     0
 42
0.00000001
 43
0.00000001
 40
0.0
 40
0.0
 40
0.0
 40
0.0
 40
1.0
 40
1.0
 40
1.0
 40
1.0
 10
6247.399250670633
 20
7280.410618632803
 30
0.0
 10
6247.485536461247
 20
7280.482794797279
 30
0.0
 10
6247.570996364238
 20
7280.554280124938
 30
0.0
 10
6247.641360255097
 20
7280.613137970752
 30
0.0
  0
ARC
  5
16B
330
1F
100
AcDbEntity
  8
0
  6
SLD-Plná
 62
     7
370
    25
100
AcDbCircle
 10
6247.1722289142
 20
7279.9651288775
 30
0.0
 40
0.5000000000002673
100
AcDbArc
 50
62.9965909574
 51
90.0
  0
LINE
  5
16C
330
1F
100
AcDbEntity
  8
0
  6
SLD-Plná
 62
     7
370
    25
100
AcDbLine
 10
6244.1722289142
 20
7275.9651288775
 30
0.0
 11
6244.1722289142
 21
7276.1651288775
 31
0.0
  0
ARC
  5
16D
330
1F
100
AcDbEntity
  8
0
  6
SLD-Plná
 62
     7
370
    25
100
AcDbCircle
 10
6244.1722289142
 20
7276.9651288775
 30
0.0
 40
1.000000000000909
100
AcDbArc
 50
180.0
 51
270.0
  0
LINE
  5
16E
330
1F
100
AcDbEntity
  8
0
  6
SLD-Plná
 62
     7
370
    25
100
AcDbLine
 10
6243.3722289142
 20
7276.9651288775
 30
0.0
 11
6243.1722289142
 21
7276.9651288775
 31
0.0
  0
ARC
  5
16F
330
1F
100
AcDbEntity
  8
0
  6
SLD-Plná
 62
     7
370
    25
100
AcDbCircle
 10
6244.1722289142
 20
7276.9651288775
 30
0.0
 40
0.8000000000007614
100
AcDbArc
 50
180.0
 51
198.1972398863
  0
SPLINE
  5
170
330
1F
100
AcDbEntity
  8
0
  6
SLD-Plná
 62
     7
370
    25
100
AcDbSpline
210
0.0
220
0.0
230
1.0
 70
    24
 71
     3
 72
     8
 73
     4
 74
     0
 42
0.00000001
 43
0.00000001
 40
0.0
 40
0.0
 40
0.0
 40
0.0
 40
1.0
 40
1.0
 40
1.0
 40
1.0
 10
6243.673223641896
 20
7276.933605263256
 30
0.0
 10
6243.581226696791
 20
7276.856651843766
 30
0.0
 10
6243.488701763074
 20
7276.779256773424
 30
0.0
 10
6243.412239236914
 20
7276.715297553428
 30
0.0
  0
ARC
  5
171
330
1F
100
AcDbEntity
  8
0
  6
SLD-Plná
 62
     7
370
    25
100
AcDbCircle
 10
6244.1722289142
 20
7276.9651288775
 30
0.0
 40
0.5000000000000803
100
AcDbArc
 50
183.6147375392
 51
270.0
  0
LINE
  5
172
330
1F
100
AcDbEntity
  8
0
  6
SLD-Plná
 62
     7
370
    25
100
AcDbLine
 10
6244.1722289142
 20
7276.2717011858
 30
0.0
 11
6244.1722289142
 21
7276.4651288775
 31
0.0
  0
SPLINE
  5
173
330
1F
100
AcDbEntity
  8
0
  6
SLD-Plná
 62
     7
370
    25
100
AcDbSpline
210
0.0
220
0.0
230
1.0
 70
    24
 71
     3
 72
     8
 73
     4
 74
     0
 42
0.00000001
 43
0.00000001
 40
0.0
 40
0.0
 40
0.0
 40
0.0
 40
1.0
 40
1.0
 40
1.0
 40
1.0
 10
6244.055124774345
 20
7276.173746150589
 30
0.0
 10
6244.092115129438
 20
7276.204687768371
 30
0.0
 10
6244.131349119402
 20
7276.237506137335
 30
0.0
 10
6244.172228914155
 20
7276.271701185777
 30
0.0
  0
ARC
  5
174
330
1F
100
AcDbEntity
  8
0
  6
SLD-Plná
 62
     7
370
    25
100
AcDbCircle
 10
6244.1722289142
 20
7276.9651288775
 30
0.0
 40
0.8000000000002593
100
AcDbArc
 50
261.5827897732
 51
270.0
  0
LINE
  5
175
330
1F
100
AcDbEntity
  8
0
  6
SLD-Plná
 62
     7
370
    25
100
AcDbLine
 10
6246.0125672203
 20
7276.4651288775
 30
0.0
 11
6247.6722289142
 21
7277.853399351
 31
0.0
  0
LINE
  5
176
330
1F
100
AcDbEntity
  8
0
  6
SLD-Plná
 62
     7
370
    25
100
AcDbLine
 10
6244.8341727782
 20
7276.4651288775
 30
0.0
 11
6246.0125672203
 21
7276.4651288775
 31
0.0
  0
LINE
  5
177
330
1F
100
AcDbEntity
  8
0
  6
SLD-Plná
 62
     7
370
    25
100
AcDbLine
 10
6247.6722289142
 20
7278.8391003623
 30
0.0
 11
6244.8341727782
 21
7276.4651288775
 31
0.0
  0
LINE
  5
178
330
1F
100
AcDbEntity
  8
0
  6
SLD-Plná
 62
     7
370
    25
100
AcDbLine
 10
6247.6722289142
 20
7277.853399351
 30
0.0
 11
6247.6722289142
 21
7278.8391003623
 31
0.0
  0
LINE
  5
179
330
1F
100
AcDbEntity
  8
0
  6
SLD-Plná
 62
     7
370
    25
100
AcDbLine
 10
6246.0798093461
 20
7280.4651288775
 30
0.0
 11
6243.6722289142
 21
7278.4512408433
 31
0.0
  0
LINE
  5
17A
330
1F
100
AcDbEntity
  8
0
  6
SLD-Plná
 62
     7
370
    25
100
AcDbLine
 10
6247.1722289142
 20
7280.4651288775
 30
0.0
 11
6246.0798093461
 21
7280.4651288775
 31
0.0
  0
LINE
  5
17B
330
1F
100
AcDbEntity
  8
0
  6
SLD-Plná
 62
     7
370
    25
100
AcDbLine
 10
6243.6722289142
 20
7278.4512408433
 30
0.0
 11
6243.6722289142
 21
7277.2930469749
 31
0.0
  0
LINE
  5
17C
330
1F
100
AcDbEntity
  8
0
  6
SLD-Plná
 62
     7
370
    25
100
AcDbLine
 10
6243.6722289142
 20
7277.2930469749
 30
0.0
 11
6247.3992506706
 21
7280.4106186328
 31
0.0
  0
LINE
  5
17D
330
1F
100
AcDbEntity
  8
0
  6
SLD-Plná
 62
     7
370
    25
100
AcDbLine
 10
6244.1722289142
 20
7276.4651288775
 30
0.0
 11
6244.4034695381
 21
7276.4651288775
 31
0.0
  0
LINE
  5
17E
330
1F
100
AcDbEntity
  8
0
  6
SLD-Plná
 62
     7
370
    25
100
AcDbLine
 10
6244.1722289142
 20
7276.2717011858
 30
0.0
 11
6244.4034695381
 21
7276.4651288775
 31
0.0
  0
ARC
  5
17F
330
1F
100
AcDbEntity
  8
0
  6
SLD-Plná
 62
     7
370
    25
100
AcDbCircle
 10
6247.1722289142
 20
7276.9651288775
 30
0.0
 40
1.0
100
AcDbArc
 50
270.0
 51
0.0
  0
LINE
  5
180
330
1F
100
AcDbEntity
  8
0
  6
SLD-Plná
 62
     7
370
    25
100
AcDbLine
 10
6247.1722289142
 20
7275.9651288775
 30
0.0
 11
6247.1722289142
 21
7276.4651288775
 31
0.0
  0
ARC
  5
181
330
1F
100
AcDbEntity
  8
0
  6
SLD-Plná
 62
     7
370
    25
100
AcDbCircle
 10
6247.1722289142
 20
7276.9651288775
 30
0.0
 40
0.4999999999990905
100
AcDbArc
 50
270.0
 51
0.0
  0
LINE
  5
182
330
1F
100
AcDbEntity
  8
0
  6
SLD-Plná
 62
     7
370
    25
100
AcDbLine
 10
6248.1722289142
 20
7276.9651288775
 30
0.0
 11
6247.6722289142
 21
7276.9651288775
 31
0.0
  0
LINE
  5
183
330
1F
100
AcDbEntity
  8
0
  6
SLD-Plná
 62
     7
370
    25
100
AcDbLine
 10
6243.1722289142
 20
7276.9651288775
 30
0.0
 11
6243.1722289142
 21
7279.9651288775
 31
0.0
  0
LINE
  5
184
330
1F
100
AcDbEntity
  8
0
  6
SLD-Plná
 62
     7
370
    25
100
AcDbLine
 10
6243.3722289142
 20
7279.5849657273
 30
0.0
 11
6243.3722289142
 21
7279.9452395068
 31
0.0
  0
LINE
  5
185
330
1F
100
AcDbEntity
  8
0
  6
SLD-Plná
 62
     7
370
    25
100
AcDbLine
 10
6243.6722289142
 20
7279.8359091235
 30
0.0
 11
6243.6722289142
 21
7278.8115146227
 31
0.0
  0
LINE
  5
186
330
1F
100
AcDbEntity
  8
0
  6
SLD-Plná
 62
     7
370
    25
100
AcDbLine
 10
6243.3722289142
 20
7278.5605712265
 30
0.0
 11
6243.6722289142
 21
7278.8115146227
 31
0.0
  0
LINE
  5
187
330
1F
100
AcDbEntity
  8
0
  6
SLD-Plná
 62
     7
370
    25
100
AcDbLine
 10
6243.3722289142
 20
7278.200297447
 30
0.0
 11
6243.3722289142
 21
7278.5605712265
 31
0.0
  0
LINE
  5
188
330
1F
100
AcDbEntity
  8
0
  6
SLD-Plná
 62
     7
370
    25
100
AcDbLine
 10
6243.6722289142
 20
7278.4512408433
 30
0.0
 11
6243.3722289142
 21
7278.200297447
 31
0.0
  0
LINE
  5
189
330
1F
100
AcDbEntity
  8
0
  6
SLD-Plná
 62
     7
370
    25
100
AcDbLine
 10
6243.3722289142
 20
7276.9651288775
 30
0.0
 11
6243.3722289142
 21
7277.0421035786
 31
0.0
  0
LINE
  5
18A
330
1F
100
AcDbEntity
  8
0
  6
SLD-Plná
 62
     7
370
    25
100
AcDbLine
 10
6243.6722289142
 20
7279.8359091235
 30
0.0
 11
6243.3722289142
 21
7279.5849657273
 31
0.0
  0
LINE
  5
18B
330
1F
100
AcDbEntity
  8
0
  6
SLD-Plná
 62
     7
370
    25
100
AcDbLine
 10
6243.3722289142
 20
7277.0421035786
 30
0.0
 11
6243.6722289142
 21
7277.2930469749
 31
0.0
  0
LINE
  5
18C
330
1F
100
AcDbEntity
  8
0
  6
SLD-Plná
 62
     7
370
    25
100
AcDbLine
 10
6243.3722289142
 20
7279.9452395068
 30
0.0
 11
6243.3960064326
 21
7279.9651288775
 31
0.0
  0
LINE
  5
18D
330
1F
100
AcDbEntity
  8
0
  6
SLD-Plná
 62
     7
370
    25
100
AcDbLine
 10
6247.6722289142
 20
7279.1993741418
 30
0.0
 11
6247.6722289142
 21
7279.9651288775
 31
0.0
  0
LINE
  5
18E
330
1F
100
AcDbEntity
  8
0
  6
SLD-Plná
 62
     7
370
    25
100
AcDbLine
 10
6244.4034695381
 20
7276.4651288775
 30
0.0
 11
6247.6722289142
 21
7279.1993741418
 31
0.0
  0
LINE
  5
18F
330
1F
100
AcDbEntity
  8
0
  6
SLD-Plná
 62
     7
370
    25
100
AcDbLine
 10
6247.6022860894
 20
7280.2201795118
 30
0.0
 11
6243.6732236419
 21
7276.9336052633
 31
0.0
  0
LINE
  5
190
330
1F
100
AcDbEntity
  8
0
  6
SLD-Plná
 62
     7
370
    25
100
AcDbLine
 10
6245.6539206038
 20
7276.1651288775
 30
0.0
 11
6246.0125672203
 21
7276.4651288775
 31
0.0
  0
LINE
  5
191
330
1F
100
AcDbEntity
  8
0
  6
SLD-Plná
 62
     7
370
    25
100
AcDbLine
 10
6246.0846238439
 20
7276.1651288775
 30
0.0
 11
6245.6539206038
 21
7276.1651288775
 31
0.0
  0
LINE
  5
192
330
1F
100
AcDbEntity
  8
0
  6
SLD-Plná
 62
     7
370
    25
100
AcDbLine
 10
6246.4432704604
 20
7276.4651288775
 30
0.0
 11
6247.1722289142
 21
7276.4651288775
 31
0.0
  0
LINE
  5
193
330
1F
100
AcDbEntity
  8
0
  6
SLD-Plná
 62
     7
370
    25
100
AcDbLine
 10
6247.1722289142
 20
7275.9651288775
 30
0.0
 11
6244.1722289142
 21
7275.9651288775
 31
0.0
  0
LINE
  5
194
330
1F
100
AcDbEntity
  8
0
  6
SLD-Plná
 62
     7
370
    25
100
AcDbLine
 10
6244.4755261617
 20
7276.1651288775
 30
0.0
 11
6244.1722289142
 21
7276.1651288775
 31
0.0
  0
LINE
  5
195
330
1F
100
AcDbEntity
  8
0
  6
SLD-Plná
 62
     7
370
    25
100
AcDbLine
 10
6246.4432704604
 20
7276.4651288775
 30
0.0
 11
6246.0846238439
 21
7276.1651288775
 31
0.0
  0
LINE
  5
196
330
1F
100
AcDbEntity
  8
0
  6
SLD-Plná
 62
     7
370
    25
100
AcDbLine
 10
6244.8341727782
 20
7276.4651288775
 30
0.0
 11
6244.4755261617
 21
7276.1651288775
 31
0.0
  0
LINE
  5
197
330
1F
100
AcDbEntity
  8
0
  6
SLD-Plná
 62
     7
370
    25
100
AcDbLine
 10
6245.6491061059
 20
7280.4651288775
 30
0.0
 11
6244.4244540336
 21
7280.4651288775
 31
0.0
  0
LINE
  5
198
330
1F
100
AcDbEntity
  8
0
  6
SLD-Plná
 62
     7
370
    25
100
AcDbLine
 10
6244.35239741
 20
7280.7651288775
 30
0.0
 11
6244.7831006501
 21
7280.7651288775
 31
0.0
  0
LINE
  5
199
330
1F
100
AcDbEntity
  8
0
  6
SLD-Plná
 62
     7
370
    25
100
AcDbLine
 10
6244.1722289142
 20
7280.9651288775
 30
0.0
 11
6247.1722289142
 21
7280.9651288775
 31
0.0
  0
LINE
  5
19A
330
1F
100
AcDbEntity
  8
0
  6
SLD-Plná
 62
     7
370
    25
100
AcDbLine
 10
6246.0077527225
 20
7280.7651288775
 30
0.0
 11
6246.4384559626
 21
7280.7651288775
 31
0.0
  0
LINE
  5
19B
330
1F
100
AcDbEntity
  8
0
  6
SLD-Plná
 62
     7
370
    25
100
AcDbLine
 10
6245.6491061059
 20
7280.4651288775
 30
0.0
 11
6246.0077527225
 21
7280.7651288775
 31
0.0
  0
LINE
  5
19C
330
1F
100
AcDbEntity
  8
0
  6
SLD-Plná
 62
     7
370
    25
100
AcDbLine
 10
6246.4384559626
 20
7280.7651288775
 30
0.0
 11
6246.0798093461
 21
7280.4651288775
 31
0.0
  0
LINE
  5
19D
330
1F
100
AcDbEntity
  8
0
  6
SLD-Plná
 62
     7
370
    25
100
AcDbLine
 10
6244.7831006501
 20
7280.7651288775
 30
0.0
 11
6244.4244540336
 21
7280.4651288775
 31
0.0
  0
LINE
  5
19E
330
1F
100
AcDbEntity
  8
0
  6
SLD-Plná
 62
     7
370
    25
100
AcDbLine
 10
6244.1722289142
 20
7280.6144218967
 30
0.0
 11
6244.35239741
 21
7280.7651288775
 31
0.0
  0
LINE
  5
19F
330
1F
100
AcDbEntity
  8
0
  6
SLD-Plná
 62
     7
370
    25
100
AcDbLine
 10
6243.8186755236
 20
7280.3186822681
 30
0.0
 11
6243.8867039023
 21
7280.3755865094
 31
0.0
  0
LINE
  5
1A0
330
1F
100
AcDbEntity
  8
0
  6
SLD-Plná
 62
     7
370
    25
100
AcDbLine
 10
6247.6722289142
 20
7276.9651288775
 30
0.0
 11
6247.6722289142
 21
7277.4931255715
 31
0.0
  0
LINE
  5
1A1
330
1F
100
AcDbEntity
  8
0
  6
SLD-Plná
 62
     7
370
    25
100
AcDbLine
 10
6247.6722289142
 20
7277.4931255715
 30
0.0
 11
6246.4432704604
 21
7276.4651288775
 31
0.0
  0
LINE
  5
1A2
330
1F
100
AcDbEntity
  8
0
  6
SLD-Plná
 62
     7
370
    25
100
AcDbLine
 10
6243.6722289142
 20
7278.8115146227
 30
0.0
 11
6245.6491061059
 21
7280.4651288775
 31
0.0
  0
LINE
  5
1A3
330
1F
100
AcDbEntity
  8
0
  6
SLD-Plná
 62
     7
370
    25
100
AcDbLine
 10
6244.4244540336
 20
7280.4651288775
 30
0.0
 11
6243.6722289142
 21
7279.8359091235
 31
0.0
  0
LINE
  5
1A4
330
1F
100
AcDbEntity
  8
0
  6
SLD-Plná
 62
     7
370
    25
100
AcDbLine
 10
6248.1722289142
 20
7279.9651288775
 30
0.0
 11
6248.1722289142
 21
7276.9651288775
 31
0.0
  0
LINE
  5
1A5
330
1F
100
AcDbEntity
  8
0
  6
SLD-Plná
 62
     7
370
    25
100
AcDbLine
 10
6247.9722289142
 20
7278.1043427472
 30
0.0
 11
6247.9722289142
 21
7277.7440689677
 31
0.0
  0
LINE
  5
1A6
330
1F
100
AcDbEntity
  8
0
  6
SLD-Plná
 62
     7
370
    25
100
AcDbLine
 10
6247.9722289142
 20
7279.450317538
 30
0.0
 11
6247.9722289142
 21
7279.0900437585
 31
0.0
  0
LINE
  5
1A7
330
1F
100
AcDbEntity
  8
0
  6
SLD-Plná
 62
     7
370
    25
100
AcDbLine
 10
6247.6722289142
 20
7277.853399351
 30
0.0
 11
6247.9722289142
 21
7278.1043427472
 31
0.0
  0
LINE
  5
1A8
330
1F
100
AcDbEntity
  8
0
  6
SLD-Plná
 62
     7
370
    25
100
AcDbLine
 10
6247.9722289142
 20
7277.7440689677
 30
0.0
 11
6247.6722289142
 21
7277.4931255715
 31
0.0
  0
LINE
  5
1A9
330
1F
100
AcDbEntity
  8
0
  6
SLD-Plná
 62
     7
370
    25
100
AcDbLine
 10
6247.9722289142
 20
7279.0900437585
 30
0.0
 11
6247.6722289142
 21
7278.8391003623
 31
0.0
  0
LINE
  5
1AA
330
1F
100
AcDbEntity
  8
0
  6
SLD-Plná
 62
     7
370
    25
100
AcDbLine
 10
6247.6722289142
 20
7279.1993741418
 30
0.0
 11
6247.9722289142
 21
7279.450317538
 31
0.0
  0
LINE
  5
1AB
330
1F
100
AcDbEntity
  8
0
  6
SLD-Plná
 62
     7
370
    25
100
AcDbLine
 10
6267.9222289142
 20
7224.9651288775
 30
0.0
 11
6253.9655729842
 21
7224.9651288775
 31
0.0
  0
ARC
  5
1AC
330
1F
100
AcDbEntity
  8
0
  6
SLD-Plná
 62
     7
370
    25
100
AcDbCircle
 10
6253.9686786341
 20
7225.9620424577
 30
0.0
 40
0.9969184176964467
100
AcDbArc
 50
179.8226142631
 51
269.8215090418
  0
LINE
  5
1AD
330
1F
100
AcDbEntity
  8
0
  6
SLD-Plná
 62
     7
370
    25
100
AcDbLine
 10
6252.9717649942
 20
7225.9651288775
 30
0.0
 11
6268.9222289142
 21
7225.9651288775
 31
0.0
  0
ARC
  5
1AE
330
1F
100
AcDbEntity
  8
0
  6
SLD-Plná
 62
     7
370
    25
100
AcDbCircle
 10
6267.9222289142
 20
7225.9651288775
 30
0.0
 40
1.000000000000909
100
AcDbArc
 50
270.0
 51
0.0
  0
ELLIPSE
  5
1AF
330
1F
100
AcDbEntity
  8
0
  6
SLD-Plná
 62
     7
370
    25
100
AcDbEllipse
 10
6260.9222289142
 20
7258.5509153151
 30
0.0
 11
8.0
 21
0.0
 31
0.0
210
0.0
220
0.0
230
1.0
 40
0.875
 41
3.252933667930841
 42
6.283185307179586
  0
ARC
  5
1B0
330
1F
100
AcDbEntity
  8
0
  6
SLD-Plná
 62
     7
370
    25
100
AcDbCircle
 10
6253.9162689256
 20
7257.4976085814
 30
0.0
 40
0.9838718829626449
100
AcDbArc
 50
87.1275750483
 51
163.7370758974
  0
ARC
  5
1B1
330
1F
100
AcDbEntity
  8
0
  6
SLD-Plná
 62
     7
370
    25
100
AcDbCircle
 10
6260.9222289142
 20
7259.2580220963
 30
0.0
 40
6.999999999999926
100
AcDbArc
 50
186.3793702084
 51
0.0
  0
ARC
  5
1B2
330
1F
100
AcDbEntity
  8
0
  6
SLD-Plná
 62
     7
370
    25
100
AcDbCircle
 10
6268.0472289142
 20
7258.3741386198
 30
0.0
 40
0.8926785535720585
100
AcDbArc
 50
11.4217536591
 51
98.0494669753
  0
LINE
  5
1B3
330
1F
100
AcDbEntity
  8
0
  6
SLD-Plná
 62
     7
370
    25
100
AcDbLine
 10
6267.6571997403
 20
7230.3651288775
 30
0.0
 11
6267.6571997403
 21
7229.1651288775
 31
0.0
  0
LINE
  5
1B4
330
1F
100
AcDbEntity
  8
0
  6
SLD-Plná
 62
     7
370
    25
100
AcDbLine
 10
6253.6571997403
 20
7230.3651288775
 30
0.0
 11
6267.6571997403
 21
7230.3651288775
 31
0.0
  0
LINE
  5
1B5
330
1F
100
AcDbEntity
  8
0
  6
SLD-Plná
 62
     7
370
    25
100
AcDbLine
 10
6253.6571997403
 20
7230.3651288775
 30
0.0
 11
6253.6571997403
 21
7229.1651288775
 31
0.0
  0
LINE
  5
1B6
330
1F
100
AcDbEntity
  8
0
  6
SLD-Plná
 62
     7
370
    25
100
AcDbLine
 10
6267.6571997403
 20
7229.1651288775
 30
0.0
 11
6253.6571997403
 21
7229.1651288775
 31
0.0
  0
LINE
  5
1B7
330
1F
100
AcDbEntity
  8
0
  6
SLD-Plná
 62
     7
370
    25
100
AcDbLine
 10
6267.6571997403
 20
7233.5651288775
 30
0.0
 11
6267.6571997403
 21
7232.3651288775
 31
0.0
  0
LINE
  5
1B8
330
1F
100
AcDbEntity
  8
0
  6
SLD-Plná
 62
     7
370
    25
100
AcDbLine
 10
6253.6571997403
 20
7233.5651288775
 30
0.0
 11
6253.6571997403
 21
7232.3651288775
 31
0.0
  0
LINE
  5
1B9
330
1F
100
AcDbEntity
  8
0
  6
SLD-Plná
 62
     7
370
    25
100
AcDbLine
 10
6267.6571997403
 20
7236.7651288775
 30
0.0
 11
6267.6571997403
 21
7235.5651288775
 31
0.0
  0
LINE
  5
1BA
330
1F
100
AcDbEntity
  8
0
  6
SLD-Plná
 62
     7
370
    25
100
AcDbLine
 10
6253.6571997403
 20
7236.7651288775
 30
0.0
 11
6253.6571997403
 21
7235.5651288775
 31
0.0
  0
LINE
  5
1BB
330
1F
100
AcDbEntity
  8
0
  6
SLD-Plná
 62
     7
370
    25
100
AcDbLine
 10
6267.6571997403
 20
7239.9651288775
 30
0.0
 11
6267.6571997403
 21
7238.7651288775
 31
0.0
  0
LINE
  5
1BC
330
1F
100
AcDbEntity
  8
0
  6
SLD-Plná
 62
     7
370
    25
100
AcDbLine
 10
6253.6571997403
 20
7239.9651288775
 30
0.0
 11
6267.6571997403
 21
7239.9651288775
 31
0.0
  0
LINE
  5
1BD
330
1F
100
AcDbEntity
  8
0
  6
SLD-Plná
 62
     7
370
    25
100
AcDbLine
 10
6253.6571997403
 20
7239.9651288775
 30
0.0
 11
6253.6571997403
 21
7238.7651288775
 31
0.0
  0
LINE
  5
1BE
330
1F
100
AcDbEntity
  8
0
  6
SLD-Plná
 62
     7
370
    25
100
AcDbLine
 10
6267.6571997403
 20
7243.1651288775
 30
0.0
 11
6267.6571997403
 21
7241.9651288775
 31
0.0
  0
LINE
  5
1BF
330
1F
100
AcDbEntity
  8
0
  6
SLD-Plná
 62
     7
370
    25
100
AcDbLine
 10
6253.6571997403
 20
7243.1651288775
 30
0.0
 11
6267.6571997403
 21
7243.1651288775
 31
0.0
  0
LINE
  5
1C0
330
1F
100
AcDbEntity
  8
0
  6
SLD-Plná
 62
     7
370
    25
100
AcDbLine
 10
6253.6571997403
 20
7243.1651288775
 30
0.0
 11
6253.6571997403
 21
7241.9651288775
 31
0.0
  0
LINE
  5
1C1
330
1F
100
AcDbEntity
  8
0
  6
SLD-Plná
 62
     7
370
    25
100
AcDbLine
 10
6267.6571997403
 20
7241.9651288775
 30
0.0
 11
6253.6571997403
 21
7241.9651288775
 31
0.0
  0
LINE
  5
1C2
330
1F
100
AcDbEntity
  8
0
  6
SLD-Plná
 62
     7
370
    25
100
AcDbLine
 10
6252.9717649942
 20
7257.7731375373
 30
0.0
 11
6252.9717649942
 21
7225.9651288775
 31
0.0
  0
LINE
  5
1C3
330
1F
100
AcDbEntity
  8
0
  6
SLD-Plná
 62
     7
370
    25
100
AcDbLine
 10
6268.9222289142
 20
7225.9651288775
 30
0.0
 11
6268.9222289142
 21
7258.5509153151
 31
0.0
  0
LINE
  5
1C4
330
1F
100
AcDbEntity
  8
0
  6
SLD-Plná
 62
     7
370
    25
100
AcDbLine
 10
6253.6571997403
 20
7236.7651288775
 30
0.0
 11
6267.6571997403
 21
7236.7651288775
 31
0.0
  0
LINE
  5
1C5
330
1F
100
AcDbEntity
  8
0
  6
SLD-Plná
 62
     7
370
    25
100
AcDbLine
 10
6267.6571997403
 20
7235.5651288775
 30
0.0
 11
6253.6571997403
 21
7235.5651288775
 31
0.0
  0
LINE
  5
1C6
330
1F
100
AcDbEntity
  8
0
  6
SLD-Plná
 62
     7
370
    25
100
AcDbLine
 10
6253.6571997403
 20
7233.5651288775
 30
0.0
 11
6267.6571997403
 21
7233.5651288775
 31
0.0
  0
LINE
  5
1C7
330
1F
100
AcDbEntity
  8
0
  6
SLD-Plná
 62
     7
370
    25
100
AcDbLine
 10
6267.6571997403
 20
7232.3651288775
 30
0.0
 11
6253.6571997403
 21
7232.3651288775
 31
0.0
  0
LINE
  5
1C8
330
1F
100
AcDbEntity
  8
0
  6
SLD-Plná
 62
     7
370
    25
100
AcDbLine
 10
6267.6571997403
 20
7238.7651288775
 30
0.0
 11
6253.6571997403
 21
7238.7651288775
 31
0.0
  0
LINE
  5
1C9
330
1F
100
AcDbEntity
  8
0
  6
SLD-Plná
 62
     7
370
    25
100
AcDbLine
 10
6267.9222289142
 20
7259.2580220963
 30
0.0
 11
6267.9222289142
 21
7259.6722356587
 31
0.0
  0
ARC
  5
1CA
330
1F
100
AcDbEntity
  8
0
  6
SLD-Plná
 62
     7
370
    25
100
AcDbCircle
 10
6251.9779570042
 20
7258.2580220963
 30
0.0
 40
2.000000000000782
100
AcDbArc
 50
6.3793702085
 51
45.0
  0
LINE
  5
1CB
330
1F
100
AcDbEntity
  8
0
  6
SLD-Plná
 62
     7
370
    25
100
AcDbLine
 10
6267.9222289142
 20
7259.6722356587
 30
0.0
 11
6253.3921705665
 21
7259.6722356587
 31
0.0
  0
ELLIPSE
  5
1CC
330
1F
100
AcDbEntity
  8
0
  6
SLD-Plná
 62
     7
370
    25
100
AcDbEllipse
 10
6251.9779570042
 20
7257.5509153151
 30
0.0
 11
0.0
 21
2.000000000000909
 31
0.0
210
0.0
220
0.0
230
1.0
 40
0.5
 41
4.82372999472577
 42
5.497787143781285
  0
ARC
  5
1CD
330
1F
100
AcDbEntity
  8
0
  6
SLD-Plná
 62
     7
370
    25
100
AcDbCircle
 10
6254.1446984321
 20
7258.2126010119
 30
0.0
 40
1.642203242786346
100
AcDbArc
 50
117.2737787001
 51
152.7262212999
  0
LINE
  5
1CE
330
1F
100
AcDbEntity
  8
0
  6
SLD-Plná
 62
     7
370
    25
100
AcDbLine
 10
6251.9779570042
 20
7224.9651288775
 30
0.0
 11
6251.9779570042
 21
7225.9651288775
 31
0.0
  0
LINE
  5
1CF
330
1F
100
AcDbEntity
  8
0
  6
SLD-Plná
 62
     7
370
    25
100
AcDbLine
 10
6252.9717649942
 20
7225.9651288775
 30
0.0
 11
6251.9779570042
 21
7225.9651288775
 31
0.0
  0
LINE
  5
1D0
330
1F
100
AcDbEntity
  8
0
  6
SLD-Plná
 62
     7
370
    25
100
AcDbLine
 10
6251.9779570042
 20
7224.9651288775
 30
0.0
 11
6253.9655729842
 21
7224.9651288775
 31
0.0
  0
LINE
  5
1D1
330
1F
100
AcDbEntity
  8
0
  6
SLD-Plná
 62
     7
370
    25
100
AcDbLine
 10
6251.9779570042
 20
7225.9651288775
 30
0.0
 11
6251.9779570042
 21
7260.3793424399
 31
0.0
  0
LINE
  5
1D2
330
1F
100
AcDbEntity
  8
0
  6
SLD-Plná
 62
     7
370
    25
100
AcDbLine
 10
6252.6850637853
 20
7258.9651288775
 30
0.0
 11
6251.9779570042
 21
7260.3793424399
 31
0.0
  0
LINE
  5
1D3
330
1F
100
AcDbEntity
  8
0
  6
SLD-Plná
 62
     7
370
    25
100
AcDbLine
 10
6268.9222289142
 20
7258.9651288775
 30
0.0
 11
6268.9222289142
 21
7258.5509153151
 31
0.0
  0
ARC
  5
1D4
330
1F
100
AcDbEntity
  8
0
  6
SLD-Plná
 62
     7
370
    25
100
AcDbCircle
 10
6268.0472289142
 20
7258.7883521822
 30
0.0
 40
0.8926785535702554
100
AcDbArc
 50
11.421753659
 51
98.0494669755
  0
LINE
  5
1D5
330
1F
100
AcDbEntity
  8
0
  6
SLD-Plná
 62
     7
370
    25
100
AcDbLine
 10
6251.9779570042
 20
7260.3793424399
 30
0.0
 11
6253.3921705665
 21
7259.6722356587
 31
0.0
  0
LINE
  5
1D6
330
1F
100
AcDbEntity
  8
0
  6
SLD-Plná
 62
     7
370
    25
100
AcDbLine
 10
6267.9222289142
 20
7259.6722356587
 30
0.0
 11
6267.9222289142
 21
7260.3793424399
 31
0.0
  0
LINE
  5
1D7
330
1F
100
AcDbEntity
  8
0
  6
SLD-Plná
 62
     7
370
    25
100
AcDbLine
 10
6251.9779570042
 20
7260.3793424399
 30
0.0
 11
6267.9222289142
 21
7260.3793424399
 31
0.0
  0
LINE
  5
1D8
330
1F
100
AcDbEntity
  8
0
  6
SLD-Plná
 62
     7
370
    25
100
AcDbLine
 10
6268.9222289142
 20
7260.3793424399
 30
0.0
 11
6268.9222289142
 21
7258.9651288775
 31
0.0
  0
LINE
  5
1D9
330
1F
100
AcDbEntity
  8
0
  6
SLD-Plná
 62
     7
370
    25
100
AcDbLine
 10
6268.9222289142
 20
7260.3793424399
 30
0.0
 11
6267.9222289142
 21
7260.3793424399
 31
0.0
  0
LINE
  5
1DA
330
1F
100
AcDbEntity
  8
0
  6
SLD-Plná
 62
     7
370
    25
100
AcDbLine
 10
6240.9222289142
 20
7284.9651288775
 30
0.0
 11
6240.9222289142
 21
7225.9651288775
 31
0.0
  0
LINE
  5
1DB
330
1F
100
AcDbEntity
  8
0
  6
SLD-Plná
 62
     7
370
    25
100
AcDbLine
 10
6240.9222289142
 20
7225.9651288775
 30
0.0
 11
6239.9222289142
 21
7225.9651288775
 31
0.0
  0
LINE
  5
1DC
330
1F
100
AcDbEntity
  8
0
  6
SLD-Plná
 62
     7
370
    25
100
AcDbLine
 10
6239.9222289142
 20
7225.9651288775
 30
0.0
 11
6239.9222289142
 21
7284.9651288775
 31
0.0
  0
LINE
  5
1DD
330
1F
100
AcDbEntity
  8
0
  6
SLD-Plná
 62
     7
370
    25
100
AcDbLine
 10
6240.9222289142
 20
7284.9651288775
 30
0.0
 11
6239.9222289142
 21
7284.9651288775
 31
0.0
  0
LINE
  5
1DE
330
1F
100
AcDbEntity
  8
0
  6
SLD-Plná
 62
     7
370
    25
100
AcDbLine
 10
6268.9222289142
 20
7284.9651288775
 30
0.0
 11
6268.9222289142
 21
7260.3793424399
 31
0.0
  0
LINE
  5
1DF
330
1F
100
AcDbEntity
  8
0
  6
SLD-Plná
 62
     7
370
    25
100
AcDbLine
 10
6267.9222289142
 20
7260.3793424399
 30
0.0
 11
6267.9222289142
 21
7284.9651288775
 31
0.0
  0
LINE
  5
1E0
330
1F
100
AcDbEntity
  8
0
  6
SLD-Plná
 62
     7
370
    25
100
AcDbLine
 10
6268.9222289142
 20
7284.9651288775
 30
0.0
 11
6267.9222289142
 21
7284.9651288775
 31
0.0
  0
LINE
  5
1E1
330
1F
100
AcDbEntity
  8
0
  6
SLD-Plná
 62
     7
370
    25
100
AcDbLine
 10
6240.9222289142
 20
7284.9651288775
 30
0.0
 11
6240.9222289142
 21
7285.9651288775
 31
0.0
  0
LINE
  5
1E2
330
1F
100
AcDbEntity
  8
0
  6
SLD-Plná
 62
     7
370
    25
100
AcDbLine
 10
6240.9222289142
 20
7285.9651288775
 30
0.0
 11
6267.9222289142
 21
7285.9651288775
 31
0.0
  0
LINE
  5
1E3
330
1F
100
AcDbEntity
  8
0
  6
SLD-Plná
 62
     7
370
    25
100
AcDbLine
 10
6267.9222289142
 20
7284.9651288775
 30
0.0
 11
6267.9222289142
 21
7285.9651288775
 31
0.0
  0
LINE
  5
1E4
330
1F
100
AcDbEntity
  8
0
  6
SLD-Plná
 62
     7
370
    25
100
AcDbLine
 10
6267.9222289142
 20
7284.9651288775
 30
0.0
 11
6240.9222289142
 21
7284.9651288775
 31
0.0
  0
LINE
  5
1E5
330
1F
100
AcDbEntity
  8
0
  6
SLD-Plná
 62
     7
370
    25
100
AcDbLine
 10
6240.9222289142
 20
7225.9651288775
 30
0.0
 11
6251.9779570042
 21
7225.9651288775
 31
0.0
  0
LINE
  5
1E6
330
1F
100
AcDbEntity
  8
0
  6
SLD-Plná
 62
     7
370
    25
100
AcDbLine
 10
6240.9222289142
 20
7225.9651288775
 30
0.0
 11
6240.9222289142
 21
7224.9651288775
 31
0.0
  0
LINE
  5
1E7
330
1F
100
AcDbEntity
  8
0
  6
SLD-Plná
 62
     7
370
    25
100
AcDbLine
 10
6251.9779570042
 20
7224.9651288775
 30
0.0
 11
6240.9222289142
 21
7224.9651288775
 31
0.0
  0
ARC
  5
1E8
330
1F
100
AcDbEntity
  8
0
  6
SLD-Plná
 62
     7
370
    25
100
AcDbCircle
 10
6267.9222289142
 20
7284.9651288775
 30
0.0
 40
1.000000000000909
100
AcDbArc
 50
0.0
 51
90.0
  0
ARC
  5
1E9
330
1F
100
AcDbEntity
  8
0
  6
SLD-Plná
 62
     7
370
    25
100
AcDbCircle
 10
6240.9222289142
 20
7284.9651288775
 30
0.0
 40
1.000000000000909
100
AcDbArc
 50
90.0
 51
180.0
  0
ARC
  5
1EA
330
1F
100
AcDbEntity
  8
0
  6
SLD-Plná
 62
     7
370
    25
100
AcDbCircle
 10
6240.9222289142
 20
7225.9651288775
 30
0.0
 40
1.0
100
AcDbArc
 50
180.0
 51
270.0
  0
LINE
  5
1EB
330
1F
100
AcDbEntity
  8
0
  6
SLD-Plná
 62
     7
370
    25
100
AcDbLine
 10
6251.5444097262
 20
7260.0271778797
 30
0.0
 11
6267.2906066412
 21
7281.4434540242
 31
0.0
  0
LINE
  5
1EC
330
1F
100
AcDbEntity
  8
0
  6
SLD-Plná
 62
     7
370
    25
100
AcDbLine
 10
6241.2271670296
 20
7283.5996185343
 30
0.0
 11
6241.2271670296
 21
7227.3170468308
 31
0.0
  0
ARC
  5
1ED
330
1F
100
AcDbEntity
  8
0
  6
SLD-Plná
 62
     7
370
    25
100
AcDbCircle
 10
6242.2271670296
 20
7227.3170468308
 30
0.0
 40
1.0
100
AcDbArc
 50
180.0
 51
270.0
  0
ARC
  5
1EE
330
1F
100
AcDbEntity
  8
0
  6
SLD-Plná
 62
     7
370
    25
100
AcDbCircle
 10
6250.5444097262
 20
7227.3170468308
 30
0.0
 40
1.0
100
AcDbArc
 50
270.0
 51
0.0
  0
LINE
  5
1EF
330
1F
100
AcDbEntity
  8
0
  6
SLD-Plná
 62
     7
370
    25
100
AcDbLine
 10
6251.5444097262
 20
7227.3170468308
 30
0.0
 11
6251.5444097262
 21
7260.0271778797
 31
0.0
  0
ARC
  5
1F0
330
1F
100
AcDbEntity
  8
0
  6
SLD-Plná
 62
     7
370
    25
100
AcDbCircle
 10
6242.2271670296
 20
7283.5996185343
 30
0.0
 40
1.0
100
AcDbArc
 50
90.0
 51
180.0
  0
LINE
  5
1F1
330
1F
100
AcDbEntity
  8
0
  6
SLD-Plná
 62
     7
370
    25
100
AcDbLine
 10
6242.2271670296
 20
7226.3170468308
 30
0.0
 11
6250.5444097262
 21
7226.3170468308
 31
0.0
  0
LINE
  5
1F2
330
1F
100
AcDbEntity
  8
0
  6
SLD-Plná
 62
     7
370
    25
100
AcDbLine
 10
6266.0114110243
 20
7284.5996185343
 30
0.0
 11
6242.2271670296
 21
7284.5996185343
 31
0.0
  0
ARC
  5
1F3
330
1F
100
AcDbEntity
  8
0
  6
SLD-Plná
 62
     7
370
    25
100
AcDbCircle
 10
6265.679699953
 20
7282.6278641314
 30
0.0
 40
1.999461842621877
100
AcDbArc
 50
323.6750233784
 51
80.4504685036
  0
CIRCLE
  5
1F4
330
1F
100
AcDbEntity
  8
0
  6
SLD-Plná
 62
     7
370
    25
100
AcDbCircle
 10
6254.7222289142
 20
7278.4651288775
 30
0.0
 40
1.199999999999818
  0
LINE
  5
1F5
330
1F
100
AcDbEntity
  8
0
  6
SLD-Plná
 62
     7
370
    25
100
AcDbLine
 10
6263.8717186569
 20
7287.9651288775
 30
0.0
 11
6263.9727391714
 21
7287.9651288775
 31
0.0
  0
ARC
  5
1F6
330
1F
100
AcDbEntity
  8
0
  6
SLD-Plná
 62
     7
370
    25
100
AcDbCircle
 10
6258.8316923236
 20
7218.7151288775
 30
0.0
 40
0.7500000000003393
100
AcDbArc
 50
212.7352262721
 51
270.0
  0
LINE
  5
1F7
330
1F
100
AcDbEntity
  8
0
  6
SLD-Plná
 62
     7
370
    25
100
AcDbLine
 10
6258.8316923236
 20
7218.7151288775
 30
0.0
 11
6258.2008084671
 21
7218.309560684
 31
0.0
  0
LINE
  5
1F8
330
1F
100
AcDbEntity
  8
0
  6
SLD-Plná
 62
     7
370
    25
100
AcDbLine
 10
6258.8316923236
 20
7217.9651288775
 30
0.0
 11
6258.8316923236
 21
7218.7151288775
 31
0.0
  0
LINE
  5
1F9
330
1F
100
AcDbEntity
  8
0
  6
SLD-Plná
 62
     7
370
    25
100
AcDbLine
 10
6263.0127655047
 20
7217.9651288775
 30
0.0
 11
6258.8316923236
 21
7217.9651288775
 31
0.0
  0
LINE
  5
1FA
330
1F
100
AcDbEntity
  8
0
  6
SLD-Plná
 62
     7
370
    25
100
AcDbLine
 10
6258.8316923236
 20
7218.7151288775
 30
0.0
 11
6263.0127655047
 21
7218.7151288775
 31
0.0
  0
LINE
  5
1FB
330
1F
100
AcDbEntity
  8
0
  6
SLD-Plná
 62
     7
370
    25
100
AcDbLine
 10
6263.0127655047
 20
7218.7151288775
 30
0.0
 11
6263.0127655047
 21
7217.9651288775
 31
0.0
  0
LINE
  5
1FC
330
1F
100
AcDbEntity
  8
0
  6
SLD-Plná
 62
     7
370
    25
100
AcDbLine
 10
6267.9222289142
 20
7224.9651288775
 30
0.0
 11
6263.6436493612
 21
7218.309560684
 31
0.0
  0
LINE
  5
1FD
330
1F
100
AcDbEntity
  8
0
  6
SLD-Plná
 62
     7
370
    25
100
AcDbLine
 10
6263.6436493612
 20
7218.309560684
 30
0.0
 11
6263.0127655047
 21
7218.7151288775
 31
0.0
  0
LINE
  5
1FE
330
1F
100
AcDbEntity
  8
0
  6
SLD-Plná
 62
     7
370
    25
100
AcDbLine
 10
6263.0127655047
 20
7218.7151288775
 30
0.0
 11
6267.0306226475
 21
7224.9651288775
 31
0.0
  0
ARC
  5
1FF
330
1F
100
AcDbEntity
  8
0
  6
SLD-Plná
 62
     7
370
    25
100
AcDbCircle
 10
6263.0127655047
 20
7218.7151288775
 30
0.0
 40
0.75
100
AcDbArc
 50
270.0
 51
327.2647737279
  0
LINE
  5
200
330
1F
100
AcDbEntity
  8
0
  6
SLD-Plná
 62
     7
370
    25
100
AcDbLine
 10
6254.8138351808
 20
7224.9651288775
 30
0.0
 11
6258.8316923236
 21
7218.7151288775
 31
0.0
  0
LINE
  5
201
330
1F
100
AcDbEntity
  8
0
  6
SLD-Plná
 62
     7
370
    25
100
AcDbLine
 10
6258.2008084671
 20
7218.309560684
 30
0.0
 11
6253.9222289142
 21
7224.9651288775
 31
0.0
  0
CIRCLE
  5
202
330
1F
100
AcDbEntity
  8
0
  6
SLD-Plná
 62
     7
370
    25
100
AcDbCircle
 10
6260.9222289142
 20
7221.4651288775
 30
0.0
 40
1.75
  0
ARC
  5
203
330
1F
100
AcDbEntity
  8
0
  6
SLD-Plná
 62
     7
370
    25
100
AcDbCircle
 10
6384.0308833002
 20
7225.9651288775
 30
0.0
 40
0.9999999999990905
100
AcDbArc
 50
270.0
 51
0.0
  0
LINE
  5
204
330
1F
100
AcDbEntity
  8
0
  6
SLD-Plná
 62
     7
370
    25
100
AcDbLine
 10
6385.0308833002
 20
7243.1651288775
 30
0.0
 11
6385.0308833002
 21
7251.5509153151
 31
0.0
  0
LINE
  5
205
330
1F
100
AcDbEntity
  8
0
  6
SLD-Plná
 62
     7
370
    25
100
AcDbLine
 10
6385.0308833002
 20
7239.9651288775
 30
0.0
 11
6385.0308833002
 21
7241.9651288775
 31
0.0
  0
LINE
  5
206
330
1F
100
AcDbEntity
  8
0
  6
SLD-Plná
 62
     7
370
    25
100
AcDbLine
 10
6385.0308833002
 20
7236.7651288775
 30
0.0
 11
6385.0308833002
 21
7238.7651288775
 31
0.0
  0
LINE
  5
207
330
1F
100
AcDbEntity
  8
0
  6
SLD-Plná
 62
     7
370
    25
100
AcDbLine
 10
6385.0308833002
 20
7233.5651288775
 30
0.0
 11
6385.0308833002
 21
7235.5651288775
 31
0.0
  0
LINE
  5
208
330
1F
100
AcDbEntity
  8
0
  6
SLD-Plná
 62
     7
370
    25
100
AcDbLine
 10
6385.0308833002
 20
7230.3651288775
 30
0.0
 11
6385.0308833002
 21
7232.3651288775
 31
0.0
  0
LINE
  5
209
330
1F
100
AcDbEntity
  8
0
  6
SLD-Plná
 62
     7
370
    25
100
AcDbLine
 10
6385.0308833002
 20
7225.9651288775
 30
0.0
 11
6385.0308833002
 21
7229.1651288775
 31
0.0
  0
ARC
  5
20A
330
1F
100
AcDbEntity
  8
0
  6
SLD-Plná
 62
     7
370
    25
100
AcDbCircle
 10
6384.0308833002
 20
7251.5509153151
 30
0.0
 40
0.9999999999997926
100
AcDbArc
 50
0.4994079015
 51
45.0
  0
LINE
  5
20B
330
1F
100
AcDbEntity
  8
0
  6
SLD-Plná
 62
     7
370
    25
100
AcDbLine
 10
6384.5308833002
 20
7229.1651288775
 30
0.0
 11
6384.5308833002
 21
7230.3651288775
 31
0.0
  0
LINE
  5
20C
330
1F
100
AcDbEntity
  8
0
  6
SLD-Plná
 62
     7
370
    25
100
AcDbLine
 10
6384.5308833002
 20
7232.3651288775
 30
0.0
 11
6384.5308833002
 21
7233.5651288775
 31
0.0
  0
LINE
  5
20D
330
1F
100
AcDbEntity
  8
0
  6
SLD-Plná
 62
     7
370
    25
100
AcDbLine
 10
6384.5308833002
 20
7235.5651288775
 30
0.0
 11
6384.5308833002
 21
7236.7651288775
 31
0.0
  0
LINE
  5
20E
330
1F
100
AcDbEntity
  8
0
  6
SLD-Plná
 62
     7
370
    25
100
AcDbLine
 10
6384.5308833002
 20
7238.7651288775
 30
0.0
 11
6384.5308833002
 21
7239.9651288775
 31
0.0
  0
LINE
  5
20F
330
1F
100
AcDbEntity
  8
0
  6
SLD-Plná
 62
     7
370
    25
100
AcDbLine
 10
6384.5308833002
 20
7241.9651288775
 30
0.0
 11
6384.5308833002
 21
7243.1651288775
 31
0.0
  0
ARC
  5
210
330
1F
100
AcDbEntity
  8
0
  6
SLD-Plná
 62
     7
370
    25
100
AcDbCircle
 10
6372.5813935574
 20
7285.4651288775
 30
0.0
 40
2.5
100
AcDbArc
 50
11.5369590328
 51
90.0
  0
ARC
  5
211
330
1F
100
AcDbEntity
  8
0
  6
SLD-Plná
 62
     7
370
    25
100
AcDbCircle
 10
6372.480373043
 20
7285.4651288775
 30
0.0
 40
2.50000000000005
100
AcDbArc
 50
90.0
 51
168.4630409672
  0
LINE
  5
212
330
1F
100
AcDbEntity
  8
0
  6
SLD-Plná
 62
     7
370
    25
100
AcDbLine
 10
6377.0308833002
 20
7250.2151288775
 30
0.0
 11
6377.5308833002
 21
7250.2151288775
 31
0.0
  0
LINE
  5
213
330
1F
100
AcDbEntity
  8
0
  6
SLD-Plná
 62
     7
370
    25
100
AcDbLine
 10
6377.5308833002
 20
7249.2151288775
 30
0.0
 11
6377.5308833002
 21
7250.2151288775
 31
0.0
  0
LINE
  5
214
330
1F
100
AcDbEntity
  8
0
  6
SLD-Plná
 62
     7
370
    25
100
AcDbLine
 10
6377.5308833002
 20
7249.2151288775
 30
0.0
 11
6377.0308833002
 21
7249.2151288775
 31
0.0
  0
LINE
  5
215
330
1F
100
AcDbEntity
  8
0
  6
SLD-Plná
 62
     7
370
    25
100
AcDbLine
 10
6377.5308833002
 20
7247.7151288775
 30
0.0
 11
6377.5308833002
 21
7249.2151288775
 31
0.0
  0
LINE
  5
216
330
1F
100
AcDbEntity
  8
0
  6
SLD-Plná
 62
     7
370
    25
100
AcDbLine
 10
6377.0308833002
 20
7247.7151288775
 30
0.0
 11
6377.5308833002
 21
7247.7151288775
 31
0.0
  0
LINE
  5
217
330
1F
100
AcDbEntity
  8
0
  6
SLD-Plná
 62
     7
370
    25
100
AcDbLine
 10
6378.0308833002
 20
7249.7151288775
 30
0.0
 11
6378.0308833002
 21
7249.2151288775
 31
0.0
  0
LINE
  5
218
330
1F
100
AcDbEntity
  8
0
  6
SLD-Plná
 62
     7
370
    25
100
AcDbLine
 10
6377.5308833002
 20
7249.2151288775
 30
0.0
 11
6378.0308833002
 21
7249.2151288775
 31
0.0
  0
ARC
  5
219
330
1F
100
AcDbEntity
  8
0
  6
SLD-Plná
 62
     7
370
    25
100
AcDbCircle
 10
6377.5308833002
 20
7249.7151288775
 30
0.0
 40
0.5
100
AcDbArc
 50
0.0
 51
90.0
  0
ELLIPSE
  5
21A
330
1F
100
AcDbEntity
  8
0
  6
SLD-Plná
 62
     7
370
    25
100
AcDbEllipse
 10
6377.5308833002
 20
7248.2177828848
 30
0.0
 11
0.4999999999990905
 21
0.0
 31
0.0
210
0.0
220
0.0
230
1.0
 40
0.8364779874
 41
5.639684198387449
 42
6.283185307179586
  0
LINE
  5
21B
330
1F
100
AcDbEntity
  8
0
  6
SLD-Plná
 62
     7
370
    25
100
AcDbLine
 10
6378.0308833002
 20
7248.2177828848
 30
0.0
 11
6378.0308833002
 21
7247.7151288775
 31
0.0
  0
LINE
  5
21C
330
1F
100
AcDbEntity
  8
0
  6
SLD-Plná
 62
     7
370
    25
100
AcDbLine
 10
6377.5308833002
 20
7247.7151288775
 30
0.0
 11
6378.0308833002
 21
7247.7151288775
 31
0.0
  0
LINE
  5
21D
330
1F
100
AcDbEntity
  8
0
  6
SLD-Plná
 62
     7
370
    25
100
AcDbLine
 10
6378.0308833002
 20
7249.2151288775
 30
0.0
 11
6378.0308833002
 21
7248.5780566642
 31
0.0
  0
ELLIPSE
  5
21E
330
1F
100
AcDbEntity
  8
0
  6
SLD-Plná
 62
     7
370
    25
100
AcDbEllipse
 10
6377.5308833002
 20
7248.5780566642
 30
0.0
 11
0.4999999999990905
 21
0.0
 31
0.0
210
0.0
220
0.0
230
1.0
 40
0.8364779874
 41
5.63968419838571
 42
6.283185307179586
  0
LINE
  5
21F
330
1F
100
AcDbEntity
  8
0
  6
SLD-Plná
 62
     7
370
    25
100
AcDbLine
 10
6377.9308833002
 20
7247.9668394885
 30
0.0
 11
6377.9308833002
 21
7248.327113268
 31
0.0
  0
LINE
  5
220
330
1F
100
AcDbEntity
  8
0
  6
SLD-Plná
 62
     7
370
    25
100
AcDbLine
 10
6377.5308833002
 20
7246.7151288775
 30
0.0
 11
6377.5308833002
 21
7247.7151288775
 31
0.0
  0
LINE
  5
221
330
1F
100
AcDbEntity
  8
0
  6
SLD-Plná
 62
     7
370
    25
100
AcDbLine
 10
6377.5308833002
 20
7246.7151288775
 30
0.0
 11
6377.0308833002
 21
7246.7151288775
 31
0.0
  0
SPLINE
  5
222
330
1F
100
AcDbEntity
  8
0
  6
SLD-Plná
 62
     7
370
    25
100
AcDbSpline
210
0.0
220
0.0
230
1.0
 70
     8
 71
     3
 72
     8
 73
     4
 74
     0
 42
0.00000001
 43
0.00000001
 40
0.0
 40
0.0
 40
0.0
 40
0.0
 40
1.0
 40
1.0
 40
1.0
 40
1.0
 10
6377.975268729725
 20
7246.985952984321
 30
0.0
 10
6377.963372267044
 20
7246.96288504901
 30
0.0
 10
6377.948789359789
 20
7246.940551922436
 30
0.0
 10
6377.93088330019
 20
7246.919127759848
 30
0.0
  0
ARC
  5
223
330
1F
100
AcDbEntity
  8
0
  6
SLD-Plná
 62
     7
370
    25
100
AcDbCircle
 10
6377.5308833002
 20
7247.2151288775
 30
0.0
 40
0.499999999999225
100
AcDbArc
 50
270.0
 51
332.719197673
  0
LINE
  5
224
330
1F
100
AcDbEntity
  8
0
  6
SLD-Plná
 62
     7
370
    25
100
AcDbLine
 10
6378.0308833002
 20
7247.7151288775
 30
0.0
 11
6378.0308833002
 21
7247.233599279
 31
0.0
  0
SPLINE
  5
225
330
1F
100
AcDbEntity
  8
0
  6
SLD-Plná
 62
     7
370
    25
100
AcDbSpline
210
0.0
220
0.0
230
1.0
 70
     8
 71
     3
 72
     8
 73
     4
 74
     0
 42
0.00000001
 43
0.00000001
 40
0.0
 40
0.0
 40
0.0
 40
0.0
 40
1.0
 40
1.0
 40
1.0
 40
1.0
 10
6377.930883300181
 20
7247.017982713028
 30
0.0
 10
6377.99974444793
 20
7247.080962870648
 30
0.0
 10
6378.030883300181
 20
7247.157046971164
 30
0.0
 10
6378.03088330018
 20
7247.233599279037
 30
0.0
  0
LINE
  5
226
330
1F
100
AcDbEntity
  8
0
  6
SLD-Plná
 62
     7
370
    25
100
AcDbLine
 10
6377.9308833002
 20
7246.9191277599
 30
0.0
 11
6377.9308833002
 21
7247.017982713
 31
0.0
  0
LINE
  5
227
330
1F
100
AcDbEntity
  8
0
  6
SLD-Plná
 62
     7
370
    25
100
AcDbLine
 10
6378.0308833002
 20
7248.5780566642
 30
0.0
 11
6378.0308833002
 21
7248.2177828848
 31
0.0
  0
LINE
  5
228
330
1F
100
AcDbEntity
  8
0
  6
SLD-Plná
 62
     7
370
    25
100
AcDbLine
 10
6378.0308833002
 20
7247.233599279
 30
0.0
 11
6378.0308833002
 21
7247.2151288775
 31
0.0
  0
ARC
  5
229
330
1F
100
AcDbEntity
  8
0
  6
SLD-Plná
 62
     7
370
    25
100
AcDbCircle
 10
6377.5308833002
 20
7247.2151288775
 30
0.0
 40
0.499999999999225
100
AcDbArc
 50
332.719197673
 51
0.0
  0
LINE
  5
22A
330
1F
100
AcDbEntity
  8
0
  6
SLD-Plná
 62
     7
370
    25
100
AcDbLine
 10
6377.0308833002
 20
7260.9651288775
 30
0.0
 11
6377.5308833002
 21
7260.9651288775
 31
0.0
  0
LINE
  5
22B
330
1F
100
AcDbEntity
  8
0
  6
SLD-Plná
 62
     7
370
    25
100
AcDbLine
 10
6377.5308833002
 20
7259.9651288775
 30
0.0
 11
6377.5308833002
 21
7260.9651288775
 31
0.0
  0
LINE
  5
22C
330
1F
100
AcDbEntity
  8
0
  6
SLD-Plná
 62
     7
370
    25
100
AcDbLine
 10
6377.5308833002
 20
7259.9651288775
 30
0.0
 11
6377.0308833002
 21
7259.9651288775
 31
0.0
  0
LINE
  5
22D
330
1F
100
AcDbEntity
  8
0
  6
SLD-Plná
 62
     7
370
    25
100
AcDbLine
 10
6377.0308833002
 20
7256.9651288775
 30
0.0
 11
6377.5308833002
 21
7256.9651288775
 31
0.0
  0
LINE
  5
22E
330
1F
100
AcDbEntity
  8
0
  6
SLD-Plná
 62
     7
370
    25
100
AcDbLine
 10
6377.5308833002
 20
7255.9651288775
 30
0.0
 11
6377.5308833002
 21
7256.9651288775
 31
0.0
  0
LINE
  5
22F
330
1F
100
AcDbEntity
  8
0
  6
SLD-Plná
 62
     7
370
    25
100
AcDbLine
 10
6377.5308833002
 20
7255.9651288775
 30
0.0
 11
6377.0308833002
 21
7255.9651288775
 31
0.0
  0
ARC
  5
230
330
1F
100
AcDbEntity
  8
0
  6
SLD-Plná
 62
     7
370
    25
100
AcDbCircle
 10
6377.5308833002
 20
7256.4651288775
 30
0.0
 40
0.5
100
AcDbArc
 50
270.0
 51
0.0
  0
LINE
  5
231
330
1F
100
AcDbEntity
  8
0
  6
SLD-Plná
 62
     7
370
    25
100
AcDbLine
 10
6378.0308833002
 20
7256.9651288775
 30
0.0
 11
6377.5308833002
 21
7256.9651288775
 31
0.0
  0
LINE
  5
232
330
1F
100
AcDbEntity
  8
0
  6
SLD-Plná
 62
     7
370
    25
100
AcDbLine
 10
6378.0308833002
 20
7256.9651288775
 30
0.0
 11
6378.0308833002
 21
7256.700374406
 31
0.0
  0
SPLINE
  5
233
330
1F
100
AcDbEntity
  8
0
  6
SLD-Plná
 62
     7
370
    25
100
AcDbSpline
210
0.0
220
0.0
230
1.0
 70
     8
 71
     3
 72
     8
 73
     4
 74
     0
 42
0.00000001
 43
0.00000001
 40
0.0
 40
0.0
 40
0.0
 40
0.0
 40
1.0
 40
1.0
 40
1.0
 40
1.0
 10
6377.930883300181
 20
7256.506733590331
 30
0.0
 10
6377.996056450867
 20
7256.562696568254
 30
0.0
 10
6378.03088330018
 20
7256.630840393782
 30
0.0
 10
6378.03088330018
 20
7256.700374405957
 30
0.0
  0
LINE
  5
234
330
1F
100
AcDbEntity
  8
0
  6
SLD-Plná
 62
     7
370
    25
100
AcDbLine
 10
6377.9308833002
 20
7256.3103818336
 30
0.0
 11
6377.9308833002
 21
7256.5067335903
 31
0.0
  0
SPLINE
  5
235
330
1F
100
AcDbEntity
  8
0
  6
SLD-Plná
 62
     7
370
    25
100
AcDbSpline
210
0.0
220
0.0
230
1.0
 70
     8
 71
     3
 72
     8
 73
     4
 74
     0
 42
0.00000001
 43
0.00000001
 40
0.0
 40
0.0
 40
0.0
 40
0.0
 40
1.0
 40
1.0
 40
1.0
 40
1.0
 10
6378.03088330018
 20
7256.514200546995
 30
0.0
 10
6378.03088330018
 20
7256.441271017681
 30
0.0
 10
6377.997675685826
 20
7256.369541343524
 30
0.0
 10
6377.930883300181
 20
7256.310381833634
 30
0.0
  0
LINE
  5
236
330
1F
100
AcDbEntity
  8
0
  6
SLD-Plná
 62
     7
370
    25
100
AcDbLine
 10
6378.0308833002
 20
7256.514200547
 30
0.0
 11
6378.0308833002
 21
7256.4651288775
 31
0.0
  0
ELLIPSE
  5
237
330
1F
100
AcDbEntity
  8
0
  6
SLD-Plná
 62
     7
370
    25
100
AcDbEllipse
 10
6377.5308833002
 20
7258.4447212141
 30
0.0
 11
0.4999999999990905
 21
0.0
 31
0.0
210
0.0
220
0.0
230
1.0
 40
0.8364779874
 41
5.63968419838571
 42
6.283185307179586
  0
LINE
  5
238
330
1F
100
AcDbEntity
  8
0
  6
SLD-Plná
 62
     7
370
    25
100
AcDbLine
 10
6377.9308833002
 20
7257.8335040384
 30
0.0
 11
6377.9308833002
 21
7258.1937778179
 31
0.0
  0
ELLIPSE
  5
239
330
1F
100
AcDbEntity
  8
0
  6
SLD-Plná
 62
     7
370
    25
100
AcDbEllipse
 10
6377.5308833002
 20
7258.0844474347
 30
0.0
 11
0.4999999999990905
 21
0.0
 31
0.0
210
0.0
220
0.0
230
1.0
 40
0.8364779874
 41
5.63968419838571
 42
6.283185307179586
  0
LINE
  5
23A
330
1F
100
AcDbEntity
  8
0
  6
SLD-Plná
 62
     7
370
    25
100
AcDbLine
 10
6378.0308833002
 20
7258.0844474347
 30
0.0
 11
6378.0308833002
 21
7256.9651288775
 31
0.0
  0
LINE
  5
23B
330
1F
100
AcDbEntity
  8
0
  6
SLD-Plná
 62
     7
370
    25
100
AcDbLine
 10
6377.5308833002
 20
7256.9651288775
 30
0.0
 11
6377.5308833002
 21
7259.9651288775
 31
0.0
  0
LINE
  5
23C
330
1F
100
AcDbEntity
  8
0
  6
SLD-Plná
 62
     7
370
    25
100
AcDbLine
 10
6377.9476579883
 20
7259.9651288775
 30
0.0
 11
6377.5308833002
 21
7259.9651288775
 31
0.0
  0
ELLIPSE
  5
23D
330
1F
100
AcDbEntity
  8
0
  6
SLD-Plná
 62
     7
370
    25
100
AcDbEllipse
 10
6377.5308833002
 20
7260.196182903
 30
0.0
 11
0.4999999999990905
 21
0.0
 31
0.0
210
0.0
220
0.0
230
1.0
 40
0.8364779874
 41
5.63968419838571
 42
5.697890715262954
  0
LINE
  5
23E
330
1F
100
AcDbEntity
  8
0
  6
SLD-Plná
 62
     7
370
    25
100
AcDbLine
 10
6377.9308833002
 20
7259.5849657273
 30
0.0
 11
6377.9308833002
 21
7259.9452395068
 31
0.0
  0
ELLIPSE
  5
23F
330
1F
100
AcDbEntity
  8
0
  6
SLD-Plná
 62
     7
370
    25
100
AcDbEllipse
 10
6377.5308833002
 20
7259.8359091235
 30
0.0
 11
0.4999999999990905
 21
0.0
 31
0.0
210
0.0
220
0.0
230
1.0
 40
0.8364779874
 41
5.63968419838571
 42
6.283185307179586
  0
LINE
  5
240
330
1F
100
AcDbEntity
  8
0
  6
SLD-Plná
 62
     7
370
    25
100
AcDbLine
 10
6378.0308833002
 20
7259.8359091235
 30
0.0
 11
6378.0308833002
 21
7258.4447212141
 31
0.0
  0
ARC
  5
241
330
1F
100
AcDbEntity
  8
0
  6
SLD-Plná
 62
     7
370
    25
100
AcDbCircle
 10
6377.5308833002
 20
7260.4651288775
 30
0.0
 40
0.4999999999992693
100
AcDbArc
 50
17.372697096
 51
90.0
  0
SPLINE
  5
242
330
1F
100
AcDbEntity
  8
0
  6
SLD-Plná
 62
     7
370
    25
100
AcDbSpline
210
0.0
220
0.0
230
1.0
 70
     8
 71
     3
 72
     8
 73
     4
 74
     0
 42
0.00000001
 43
0.00000001
 40
0.0
 40
0.0
 40
0.0
 40
0.0
 40
1.0
 40
1.0
 40
1.0
 40
1.0
 10
6378.03088330018
 20
7260.375586509408
 30
0.0
 10
6378.03088330018
 20
7260.455226968109
 30
0.0
 10
6378.032961442531
 20
7260.534875261429
 30
0.0
 10
6378.008074660556
 20
7260.614421896694
 30
0.0
  0
LINE
  5
243
330
1F
100
AcDbEntity
  8
0
  6
SLD-Plná
 62
     7
370
    25
100
AcDbLine
 10
6378.0308833002
 20
7260.3755865094
 30
0.0
 11
6378.0308833002
 21
7260.3186822681
 31
0.0
  0
SPLINE
  5
244
330
1F
100
AcDbEntity
  8
0
  6
SLD-Plná
 62
     7
370
    25
100
AcDbSpline
210
0.0
220
0.0
230
1.0
 70
     8
 71
     3
 72
    10
 73
     6
 74
     0
 42
0.00000001
 43
0.00000001
 40
0.0
 40
0.0
 40
0.0
 40
0.0
 40
0.5
 40
0.5
 40
1.0
 40
1.0
 40
1.0
 40
1.0
 10
6377.947657988299
 20
7259.965128877491
 30
0.0
 10
6377.990740712939
 20
7260.019503967683
 30
0.0
 10
6378.01211641088
 20
7260.079132780783
 30
0.0
 10
6378.031693293093
 20
7260.198945953804
 30
0.0
 10
6378.03088330018
 20
7260.258812584103
 30
0.0
 10
6378.03088330018
 20
7260.318682268085
 30
0.0
  0
ARC
  5
245
330
1F
100
AcDbEntity
  8
0
  6
SLD-Plná
 62
     7
370
    25
100
AcDbCircle
 10
6377.5308833002
 20
7260.4651288775
 30
0.0
 40
0.4999999999992693
100
AcDbArc
 50
0.0
 51
17.372697096
  0
LINE
  5
246
330
1F
100
AcDbEntity
  8
0
  6
SLD-Plná
 62
     7
370
    25
100
AcDbLine
 10
6378.0308833002
 20
7260.4651288775
 30
0.0
 11
6378.0308833002
 21
7260.3755865094
 31
0.0
  0
LINE
  5
247
330
1F
100
AcDbEntity
  8
0
  6
SLD-Plná
 62
     7
370
    25
100
AcDbLine
 10
6378.0308833002
 20
7260.3186822681
 30
0.0
 11
6378.0308833002
 21
7259.8359091235
 31
0.0
  0
LINE
  5
248
330
1F
100
AcDbEntity
  8
0
  6
SLD-Plná
 62
     7
370
    25
100
AcDbLine
 10
6378.0308833002
 20
7258.4447212141
 30
0.0
 11
6378.0308833002
 21
7258.0844474347
 31
0.0
  0
LINE
  5
249
330
1F
100
AcDbEntity
  8
0
  6
SLD-Plná
 62
     7
370
    25
100
AcDbLine
 10
6378.0308833002
 20
7256.700374406
 30
0.0
 11
6378.0308833002
 21
7256.514200547
 31
0.0
  0
LINE
  5
24A
330
1F
100
AcDbEntity
  8
0
  6
SLD-Plná
 62
     7
370
    25
100
AcDbLine
 10
6377.0308833002
 20
7272.4651288775
 30
0.0
 11
6377.5308833002
 21
7272.4651288775
 31
0.0
  0
LINE
  5
24B
330
1F
100
AcDbEntity
  8
0
  6
SLD-Plná
 62
     7
370
    25
100
AcDbLine
 10
6377.5308833002
 20
7271.4651288775
 30
0.0
 11
6377.5308833002
 21
7272.4651288775
 31
0.0
  0
LINE
  5
24C
330
1F
100
AcDbEntity
  8
0
  6
SLD-Plná
 62
     7
370
    25
100
AcDbLine
 10
6377.5308833002
 20
7271.4651288775
 30
0.0
 11
6377.0308833002
 21
7271.4651288775
 31
0.0
  0
LINE
  5
24D
330
1F
100
AcDbEntity
  8
0
  6
SLD-Plná
 62
     7
370
    25
100
AcDbLine
 10
6377.5308833002
 20
7265.4651288775
 30
0.0
 11
6377.5308833002
 21
7271.4651288775
 31
0.0
  0
LINE
  5
24E
330
1F
100
AcDbEntity
  8
0
  6
SLD-Plná
 62
     7
370
    25
100
AcDbLine
 10
6377.0308833002
 20
7265.4651288775
 30
0.0
 11
6377.5308833002
 21
7265.4651288775
 31
0.0
  0
ELLIPSE
  5
24F
330
1F
100
AcDbEntity
  8
0
  6
SLD-Plná
 62
     7
370
    25
100
AcDbEllipse
 10
6377.5308833002
 20
7270.0993648443
 30
0.0
 11
0.4999999999990905
 21
0.0
 31
0.0
210
0.0
220
0.0
230
1.0
 40
0.8364779874
 41
5.63968419838571
 42
6.283185307179586
  0
LINE
  5
250
330
1F
100
AcDbEntity
  8
0
  6
SLD-Plná
 62
     7
370
    25
100
AcDbLine
 10
6377.9308833002
 20
7269.4881476686
 30
0.0
 11
6377.9308833002
 21
7269.8484214481
 31
0.0
  0
ELLIPSE
  5
251
330
1F
100
AcDbEntity
  8
0
  6
SLD-Plná
 62
     7
370
    25
100
AcDbEllipse
 10
6377.5308833002
 20
7269.7390910648
 30
0.0
 11
0.4999999999990905
 21
0.0
 31
0.0
210
0.0
220
0.0
230
1.0
 40
0.8364779874
 41
5.639684198386753
 42
6.283185307179586
  0
LINE
  5
252
330
1F
100
AcDbEntity
  8
0
  6
SLD-Plná
 62
     7
370
    25
100
AcDbLine
 10
6378.0308833002
 20
7269.7390910648
 30
0.0
 11
6378.0308833002
 21
7268.1553127938
 31
0.0
  0
ELLIPSE
  5
253
330
1F
100
AcDbEntity
  8
0
  6
SLD-Plná
 62
     7
370
    25
100
AcDbEllipse
 10
6377.5308833002
 20
7268.1553127938
 30
0.0
 11
0.4999999999990905
 21
0.0
 31
0.0
210
0.0
220
0.0
230
1.0
 40
0.8364779874
 41
5.63968419838571
 42
6.283185307179586
  0
LINE
  5
254
330
1F
100
AcDbEntity
  8
0
  6
SLD-Plná
 62
     7
370
    25
100
AcDbLine
 10
6377.9308833002
 20
7267.5440956181
 30
0.0
 11
6377.9308833002
 21
7267.9043693975
 31
0.0
  0
ELLIPSE
  5
255
330
1F
100
AcDbEntity
  8
0
  6
SLD-Plná
 62
     7
370
    25
100
AcDbEllipse
 10
6377.5308833002
 20
7267.7950390143
 30
0.0
 11
0.4999999999990905
 21
0.0
 31
0.0
210
0.0
220
0.0
230
1.0
 40
0.8364779874
 41
5.639684198386753
 42
6.283185307179586
  0
LINE
  5
256
330
1F
100
AcDbEntity
  8
0
  6
SLD-Plná
 62
     7
370
    25
100
AcDbLine
 10
6378.0308833002
 20
7267.7950390143
 30
0.0
 11
6378.0308833002
 21
7266.4186903011
 31
0.0
  0
ELLIPSE
  5
257
330
1F
100
AcDbEntity
  8
0
  6
SLD-Plná
 62
     7
370
    25
100
AcDbEllipse
 10
6377.5308833002
 20
7266.4186903011
 30
0.0
 11
0.4999999999990905
 21
0.0
 31
0.0
210
0.0
220
0.0
230
1.0
 40
0.8364779874
 41
5.639684198388493
 42
6.283185307179586
  0
LINE
  5
258
330
1F
100
AcDbEntity
  8
0
  6
SLD-Plná
 62
     7
370
    25
100
AcDbLine
 10
6377.9308833002
 20
7265.8074731254
 30
0.0
 11
6377.9308833002
 21
7266.1677469049
 31
0.0
  0
ELLIPSE
  5
259
330
1F
100
AcDbEntity
  8
0
  6
SLD-Plná
 62
     7
370
    25
100
AcDbEllipse
 10
6377.5308833002
 20
7266.0584165217
 30
0.0
 11
0.4999999999990905
 21
0.0
 31
0.0
210
0.0
220
0.0
230
1.0
 40
0.8364779874
 41
5.639684198387449
 42
6.283185307179586
  0
LINE
  5
25A
330
1F
100
AcDbEntity
  8
0
  6
SLD-Plná
 62
     7
370
    25
100
AcDbLine
 10
6378.0308833002
 20
7266.0584165217
 30
0.0
 11
6378.0308833002
 21
7265.4651288775
 31
0.0
  0
LINE
  5
25B
330
1F
100
AcDbEntity
  8
0
  6
SLD-Plná
 62
     7
370
    25
100
AcDbLine
 10
6378.0308833002
 20
7265.4651288775
 30
0.0
 11
6377.5308833002
 21
7265.4651288775
 31
0.0
  0
LINE
  5
25C
330
1F
100
AcDbEntity
  8
0
  6
SLD-Plná
 62
     7
370
    25
100
AcDbLine
 10
6377.9376036571
 20
7271.4651288775
 30
0.0
 11
6377.5308833002
 21
7271.4651288775
 31
0.0
  0
ELLIPSE
  5
25D
330
1F
100
AcDbEntity
  8
0
  6
SLD-Plná
 62
     7
370
    25
100
AcDbEllipse
 10
6377.5308833002
 20
7271.7083966831
 30
0.0
 11
0.4999999999990905
 21
0.0
 31
0.0
210
0.0
220
0.0
230
1.0
 40
0.8364779874
 41
5.639684198388493
 42
5.662432319691685
  0
LINE
  5
25E
330
1F
100
AcDbEntity
  8
0
  6
SLD-Plná
 62
     7
370
    25
100
AcDbLine
 10
6377.9308833002
 20
7271.1010776731
 30
0.0
 11
6377.9308833002
 21
7271.4574532869
 31
0.0
  0
ELLIPSE
  5
25F
330
1F
100
AcDbEntity
  8
0
  6
SLD-Plná
 62
     7
370
    25
100
AcDbEllipse
 10
6377.5308833002
 20
7271.3525065397
 30
0.0
 11
0.4999999999990905
 21
0.0
 31
0.0
210
0.0
220
0.0
230
1.0
 40
0.8380962218
 41
5.639684198388142
 42
6.283185307179586
  0
LINE
  5
260
330
1F
100
AcDbEntity
  8
0
  6
SLD-Plná
 62
     7
370
    25
100
AcDbLine
 10
6378.0308833002
 20
7271.3525065397
 30
0.0
 11
6378.0308833002
 21
7270.0993648443
 31
0.0
  0
ARC
  5
261
330
1F
100
AcDbEntity
  8
0
  6
SLD-Plná
 62
     7
370
    25
100
AcDbCircle
 10
6377.5308833002
 20
7271.9651288775
 30
0.0
 40
0.5
100
AcDbArc
 50
18.8452728202
 51
90.0
  0
SPLINE
  5
262
330
1F
100
AcDbEntity
  8
0
  6
SLD-Plná
 62
     7
370
    25
100
AcDbSpline
210
0.0
220
0.0
230
1.0
 70
     8
 71
     3
 72
    14
 73
    10
 74
     0
 42
0.00000001
 43
0.00000001
 40
0.0
 40
0.0
 40
0.0
 40
0.0
 40
0.25
 40
0.25
 40
0.5
 40
0.5
 40
0.75
 40
0.75
 40
1.0
 40
1.0
 40
1.0
 40
1.0
 10
6377.937603657063
 20
7271.465128877492
 30
0.0
 10
6377.980145341164
 20
7271.514895135171
 30
0.0
 10
6378.0037245556
 20
7271.569445648246
 30
0.0
 10
6378.028535906199
 20
7271.680734418156
 30
0.0
 10
6378.03007229371
 20
7271.73651436955
 30
0.0
 10
6378.031148227351
 20
7271.8480991778
 30
0.0
 10
6378.031561509112
 20
7271.903893137051
 30
0.0
 10
6378.027981435704
 20
7272.015536017025
 30
0.0
 10
6378.02280447102
 20
7272.07177638886
 30
0.0
 10
6378.004080461797
 20
7272.126635676848
 30
0.0
  0
LINE
  5
263
330
1F
100
AcDbEntity
  8
0
  6
SLD-Plná
 62
     7
370
    25
100
AcDbLine
 10
6377.5308833002
 20
7264.4651288775
 30
0.0
 11
6377.5308833002
 21
7265.4651288775
 31
0.0
  0
LINE
  5
264
330
1F
100
AcDbEntity
  8
0
  6
SLD-Plná
 62
     7
370
    25
100
AcDbLine
 10
6377.5308833002
 20
7264.4651288775
 30
0.0
 11
6377.0308833002
 21
7264.4651288775
 31
0.0
  0
ARC
  5
265
330
1F
100
AcDbEntity
  8
0
  6
SLD-Plná
 62
     7
370
    25
100
AcDbCircle
 10
6377.5308833002
 20
7264.9651288775
 30
0.0
 40
0.5
100
AcDbArc
 50
270.0
 51
323.1301023542
  0
LINE
  5
266
330
1F
100
AcDbEntity
  8
0
  6
SLD-Plná
 62
     7
370
    25
100
AcDbLine
 10
6378.0308833002
 20
7265.4651288775
 30
0.0
 11
6378.0308833002
 21
7264.9651288775
 31
0.0
  0
ARC
  5
267
330
1F
100
AcDbEntity
  8
0
  6
SLD-Plná
 62
     7
370
    25
100
AcDbCircle
 10
6377.5308833002
 20
7264.9651288775
 30
0.0
 40
0.4999999999997285
100
AcDbArc
 50
355.0584165151
 51
0.0
  0
SPLINE
  5
268
330
1F
100
AcDbEntity
  8
0
  6
SLD-Plná
 62
     7
370
    25
100
AcDbSpline
210
0.0
220
0.0
230
1.0
 70
     8
 71
     3
 72
     8
 73
     4
 74
     0
 42
0.00000001
 43
0.00000001
 40
0.0
 40
0.0
 40
0.0
 40
0.0
 40
1.0
 40
1.0
 40
1.0
 40
1.0
 10
6377.930883300181
 20
7264.707403773828
 30
0.0
 10
6377.994935463927
 20
7264.77158578234
 30
0.0
 10
6378.022472392388
 20
7264.846274427042
 30
0.0
 10
6378.029024820609
 20
7264.922058869074
 30
0.0
  0
LINE
  5
269
330
1F
100
AcDbEntity
  8
0
  6
SLD-Plná
 62
     7
370
    25
100
AcDbLine
 10
6377.9308833002
 20
7264.6651288775
 30
0.0
 11
6377.9308833002
 21
7264.7074037738
 31
0.0
  0
ARC
  5
26A
330
1F
100
AcDbEntity
  8
0
  6
SLD-Plná
 62
     7
370
    25
100
AcDbCircle
 10
6377.5308833002
 20
7271.9651288775
 30
0.0
 40
0.4999999999996718
100
AcDbArc
 50
0.0
 51
18.8452728202
  0
LINE
  5
26B
330
1F
100
AcDbEntity
  8
0
  6
SLD-Plná
 62
     7
370
    25
100
AcDbLine
 10
6378.0308833002
 20
7271.9651288775
 30
0.0
 11
6378.0308833002
 21
7271.3525065397
 31
0.0
  0
LINE
  5
26C
330
1F
100
AcDbEntity
  8
0
  6
SLD-Plná
 62
     7
370
    25
100
AcDbLine
 10
6378.0308833002
 20
7270.0993648443
 30
0.0
 11
6378.0308833002
 21
7269.7390910648
 31
0.0
  0
LINE
  5
26D
330
1F
100
AcDbEntity
  8
0
  6
SLD-Plná
 62
     7
370
    25
100
AcDbLine
 10
6378.0308833002
 20
7268.1553127938
 30
0.0
 11
6378.0308833002
 21
7267.7950390143
 31
0.0
  0
LINE
  5
26E
330
1F
100
AcDbEntity
  8
0
  6
SLD-Plná
 62
     7
370
    25
100
AcDbLine
 10
6378.0308833002
 20
7266.4186903011
 30
0.0
 11
6378.0308833002
 21
7266.0584165217
 31
0.0
  0
LINE
  5
26F
330
1F
100
AcDbEntity
  8
0
  6
SLD-Plná
 62
     7
370
    25
100
AcDbLine
 10
6377.0308833002
 20
7280.9651288775
 30
0.0
 11
6377.5308833002
 21
7280.9651288775
 31
0.0
  0
LINE
  5
270
330
1F
100
AcDbEntity
  8
0
  6
SLD-Plná
 62
     7
370
    25
100
AcDbLine
 10
6377.5308833002
 20
7279.9651288775
 30
0.0
 11
6377.5308833002
 21
7280.9651288775
 31
0.0
  0
LINE
  5
271
330
1F
100
AcDbEntity
  8
0
  6
SLD-Plná
 62
     7
370
    25
100
AcDbLine
 10
6377.5308833002
 20
7279.9651288775
 30
0.0
 11
6377.0308833002
 21
7279.9651288775
 31
0.0
  0
LINE
  5
272
330
1F
100
AcDbEntity
  8
0
  6
SLD-Plná
 62
     7
370
    25
100
AcDbLine
 10
6377.0308833002
 20
7276.9651288775
 30
0.0
 11
6377.5308833002
 21
7276.9651288775
 31
0.0
  0
LINE
  5
273
330
1F
100
AcDbEntity
  8
0
  6
SLD-Plná
 62
     7
370
    25
100
AcDbLine
 10
6377.5308833002
 20
7275.9651288775
 30
0.0
 11
6377.5308833002
 21
7276.9651288775
 31
0.0
  0
LINE
  5
274
330
1F
100
AcDbEntity
  8
0
  6
SLD-Plná
 62
     7
370
    25
100
AcDbLine
 10
6377.5308833002
 20
7275.9651288775
 30
0.0
 11
6377.0308833002
 21
7275.9651288775
 31
0.0
  0
LINE
  5
275
330
1F
100
AcDbEntity
  8
0
  6
SLD-Plná
 62
     7
370
    25
100
AcDbLine
 10
6377.5308833002
 20
7276.9651288775
 30
0.0
 11
6377.5308833002
 21
7279.9651288775
 31
0.0
  0
ARC
  5
276
330
1F
100
AcDbEntity
  8
0
  6
SLD-Plná
 62
     7
370
    25
100
AcDbCircle
 10
6377.5308833002
 20
7280.4651288775
 30
0.0
 40
0.5
100
AcDbArc
 50
17.3726970962
 51
90.0
  0
SPLINE
  5
277
330
1F
100
AcDbEntity
  8
0
  6
SLD-Plná
 62
     7
370
    25
100
AcDbSpline
210
0.0
220
0.0
230
1.0
 70
     8
 71
     3
 72
     8
 73
     4
 74
     0
 42
0.00000001
 43
0.00000001
 40
0.0
 40
0.0
 40
0.0
 40
0.0
 40
1.0
 40
1.0
 40
1.0
 40
1.0
 10
6378.03088330018
 20
7280.375586509407
 30
0.0
 10
6378.03088330018
 20
7280.455226968109
 30
0.0
 10
6378.032961442531
 20
7280.53487526143
 30
0.0
 10
6378.008074660556
 20
7280.614421896695
 30
0.0
  0
LINE
  5
278
330
1F
100
AcDbEntity
  8
0
  6
SLD-Plná
 62
     7
370
    25
100
AcDbLine
 10
6378.0308833002
 20
7280.3755865094
 30
0.0
 11
6378.0308833002
 21
7280.3186822681
 31
0.0
  0
SPLINE
  5
279
330
1F
100
AcDbEntity
  8
0
  6
SLD-Plná
 62
     7
370
    25
100
AcDbSpline
210
0.0
220
0.0
230
1.0
 70
     8
 71
     3
 72
    10
 73
     6
 74
     0
 42
0.00000001
 43
0.00000001
 40
0.0
 40
0.0
 40
0.0
 40
0.0
 40
0.5
 40
0.5
 40
1.0
 40
1.0
 40
1.0
 40
1.0
 10
6377.947657988299
 20
7279.965128877491
 30
0.0
 10
6377.990740712939
 20
7280.019503967682
 30
0.0
 10
6378.01211641088
 20
7280.079132780784
 30
0.0
 10
6378.031693293093
 20
7280.198945953804
 30
0.0
 10
6378.03088330018
 20
7280.258812584103
 30
0.0
 10
6378.03088330018
 20
7280.318682268085
 30
0.0
  0
LINE
  5
27A
330
1F
100
AcDbEntity
  8
0
  6
SLD-Plná
 62
     7
370
    25
100
AcDbLine
 10
6377.9476579883
 20
7279.9651288775
 30
0.0
 11
6377.5308833002
 21
7279.9651288775
 31
0.0
  0
LINE
  5
27B
330
1F
100
AcDbEntity
  8
0
  6
SLD-Plná
 62
     7
370
    25
100
AcDbLine
 10
6377.9308833002
 20
7276.9651288775
 30
0.0
 11
6377.5308833002
 21
7276.9651288775
 31
0.0
  0
ELLIPSE
  5
27C
330
1F
100
AcDbEntity
  8
0
  6
SLD-Plná
 62
     7
370
    25
100
AcDbEllipse
 10
6377.5308833002
 20
7280.196182903
 30
0.0
 11
0.4999999999990905
 21
0.0
 31
0.0
210
0.0
220
0.0
230
1.0
 40
0.8364779874
 41
5.639684198388493
 42
5.697890715263955
  0
LINE
  5
27D
330
1F
100
AcDbEntity
  8
0
  6
SLD-Plná
 62
     7
370
    25
100
AcDbLine
 10
6377.9308833002
 20
7279.5849657273
 30
0.0
 11
6377.9308833002
 21
7279.9452395068
 31
0.0
  0
ELLIPSE
  5
27E
330
1F
100
AcDbEntity
  8
0
  6
SLD-Plná
 62
     7
370
    25
100
AcDbEllipse
 10
6377.5308833002
 20
7279.8359091235
 30
0.0
 11
0.4999999999990905
 21
0.0
 31
0.0
210
0.0
220
0.0
230
1.0
 40
0.8364779874
 41
5.639684198387449
 42
6.283185307179586
  0
LINE
  5
27F
330
1F
100
AcDbEntity
  8
0
  6
SLD-Plná
 62
     7
370
    25
100
AcDbLine
 10
6378.0308833002
 20
7279.8359091235
 30
0.0
 11
6378.0308833002
 21
7278.8115146227
 31
0.0
  0
ELLIPSE
  5
280
330
1F
100
AcDbEntity
  8
0
  6
SLD-Plná
 62
     7
370
    25
100
AcDbEllipse
 10
6377.5308833002
 20
7278.8115146227
 30
0.0
 11
0.4999999999990905
 21
0.0
 31
0.0
210
0.0
220
0.0
230
1.0
 40
0.8364779874
 41
5.63968419838571
 42
6.283185307179586
  0
LINE
  5
281
330
1F
100
AcDbEntity
  8
0
  6
SLD-Plná
 62
     7
370
    25
100
AcDbLine
 10
6377.9308833002
 20
7278.200297447
 30
0.0
 11
6377.9308833002
 21
7278.5605712265
 31
0.0
  0
ELLIPSE
  5
282
330
1F
100
AcDbEntity
  8
0
  6
SLD-Plná
 62
     7
370
    25
100
AcDbEllipse
 10
6377.5308833002
 20
7278.4512408433
 30
0.0
 11
0.4999999999990905
 21
0.0
 31
0.0
210
0.0
220
0.0
230
1.0
 40
0.8364779874
 41
5.639684198386405
 42
6.283185307179586
  0
LINE
  5
283
330
1F
100
AcDbEntity
  8
0
  6
SLD-Plná
 62
     7
370
    25
100
AcDbLine
 10
6378.0308833002
 20
7278.4512408433
 30
0.0
 11
6378.0308833002
 21
7277.2930469749
 31
0.0
  0
ELLIPSE
  5
284
330
1F
100
AcDbEntity
  8
0
  6
SLD-Plná
 62
     7
370
    25
100
AcDbEllipse
 10
6377.5308833002
 20
7277.2930469749
 30
0.0
 11
0.4999999999990905
 21
0.0
 31
0.0
210
0.0
220
0.0
230
1.0
 40
0.8364779874
 41
5.63968419838571
 42
6.283185307179586
  0
LINE
  5
285
330
1F
100
AcDbEntity
  8
0
  6
SLD-Plná
 62
     7
370
    25
100
AcDbLine
 10
6377.9308833002
 20
7276.9651288775
 30
0.0
 11
6377.9308833002
 21
7277.0421035786
 31
0.0
  0
ARC
  5
286
330
1F
100
AcDbEntity
  8
0
  6
SLD-Plná
 62
     7
370
    25
100
AcDbCircle
 10
6377.5308833002
 20
7276.4651288775
 30
0.0
 40
0.5000000000009095
100
AcDbArc
 50
270.0
 51
323.1301023541
  0
LINE
  5
287
330
1F
100
AcDbEntity
  8
0
  6
SLD-Plná
 62
     7
370
    25
100
AcDbLine
 10
6377.9308833002
 20
7276.7152975534
 30
0.0
 11
6377.9308833002
 21
7276.9651288775
 31
0.0
  0
SPLINE
  5
288
330
1F
100
AcDbEntity
  8
0
  6
SLD-Plná
 62
     7
370
    25
100
AcDbSpline
210
0.0
220
0.0
230
1.0
 70
     8
 71
     3
 72
     8
 73
     4
 74
     0
 42
0.00000001
 43
0.00000001
 40
0.0
 40
0.0
 40
0.0
 40
0.0
 40
1.0
 40
1.0
 40
1.0
 40
1.0
 10
6378.03088330018
 20
7276.933605263256
 30
0.0
 10
6378.03088330018
 20
7276.856651843766
 30
0.0
 10
6378.000342438175
 20
7276.779256773424
 30
0.0
 10
6377.930883300181
 20
7276.715297553428
 30
0.0
  0
LINE
  5
289
330
1F
100
AcDbEntity
  8
0
  6
SLD-Plná
 62
     7
370
    25
100
AcDbLine
 10
6378.0308833002
 20
7276.9336052633
 30
0.0
 11
6378.0308833002
 21
7276.4651288775
 31
0.0
  0
ARC
  5
28A
330
1F
100
AcDbEntity
  8
0
  6
SLD-Plná
 62
     7
370
    25
100
AcDbCircle
 10
6377.5308833002
 20
7276.4651288775
 30
0.0
 40
0.5000000000000595
100
AcDbArc
 50
337.2410268683
 51
0.0
  0
SPLINE
  5
28B
330
1F
100
AcDbEntity
  8
0
  6
SLD-Plná
 62
     7
370
    25
100
AcDbSpline
210
0.0
220
0.0
230
1.0
 70
     8
 71
     3
 72
     8
 73
     4
 74
     0
 42
0.00000001
 43
0.00000001
 40
0.0
 40
0.0
 40
0.0
 40
0.0
 40
1.0
 40
1.0
 40
1.0
 40
1.0
 10
6377.930883300181
 20
7276.173746150589
 30
0.0
 10
6377.957900536652
 20
7276.204687768371
 30
0.0
 10
6377.977608027564
 20
7276.237506137335
 30
0.0
 10
6377.991953498833
 20
7276.271701185777
 30
0.0
  0
LINE
  5
28C
330
1F
100
AcDbEntity
  8
0
  6
SLD-Plná
 62
     7
370
    25
100
AcDbLine
 10
6377.9308833002
 20
7276.1651288775
 30
0.0
 11
6377.9308833002
 21
7276.1737461506
 31
0.0
  0
ARC
  5
28D
330
1F
100
AcDbEntity
  8
0
  6
SLD-Plná
 62
     7
370
    25
100
AcDbCircle
 10
6377.5308833002
 20
7280.4651288775
 30
0.0
 40
0.4999999999998124
100
AcDbArc
 50
0.0
 51
17.3726970962
  0
LINE
  5
28E
330
1F
100
AcDbEntity
  8
0
  6
SLD-Plná
 62
     7
370
    25
100
AcDbLine
 10
6378.0308833002
 20
7280.4651288775
 30
0.0
 11
6378.0308833002
 21
7280.3755865094
 31
0.0
  0
LINE
  5
28F
330
1F
100
AcDbEntity
  8
0
  6
SLD-Plná
 62
     7
370
    25
100
AcDbLine
 10
6378.0308833002
 20
7280.3186822681
 30
0.0
 11
6378.0308833002
 21
7279.8359091235
 31
0.0
  0
LINE
  5
290
330
1F
100
AcDbEntity
  8
0
  6
SLD-Plná
 62
     7
370
    25
100
AcDbLine
 10
6378.0308833002
 20
7278.8115146227
 30
0.0
 11
6378.0308833002
 21
7278.4512408433
 31
0.0
  0
LINE
  5
291
330
1F
100
AcDbEntity
  8
0
  6
SLD-Plná
 62
     7
370
    25
100
AcDbLine
 10
6378.0308833002
 20
7277.2930469749
 30
0.0
 11
6378.0308833002
 21
7276.9336052633
 31
0.0
  0
ARC
  5
292
330
1F
100
AcDbEntity
  8
0
  6
SLD-Plná
 62
     7
370
    25
100
AcDbCircle
 10
6377.5308833002
 20
7276.4651288775
 30
0.0
 40
0.5000000000000595
100
AcDbArc
 50
323.1301023541
 51
337.2410268683
  0
LINE
  5
293
330
1F
100
AcDbEntity
  8
0
  6
SLD-Plná
 62
     7
370
    25
100
AcDbLine
 10
6369.0308833002
 20
7225.9651288775
 30
0.0
 11
6369.0308833002
 21
7224.9651288775
 31
0.0
  0
ARC
  5
294
330
1F
100
AcDbEntity
  8
0
  6
SLD-Plná
 62
     7
370
    25
100
AcDbCircle
 10
6369.0308833002
 20
7225.9651288775
 30
0.0
 40
0.9999999999990905
100
AcDbArc
 50
180.0
 51
270.0
  0
LINE
  5
295
330
1F
100
AcDbEntity
  8
0
  6
SLD-Plná
 62
     7
370
    25
100
AcDbLine
 10
6369.0308833002
 20
7225.9651288775
 30
0.0
 11
6368.0308833002
 21
7225.9651288775
 31
0.0
  0
LINE
  5
296
330
1F
100
AcDbEntity
  8
0
  6
SLD-Plná
 62
     7
370
    25
100
AcDbLine
 10
6369.0308833002
 20
7284.9651288775
 30
0.0
 11
6369.0308833002
 21
7225.9651288775
 31
0.0
  0
LINE
  5
297
330
1F
100
AcDbEntity
  8
0
  6
SLD-Plná
 62
     7
370
    25
100
AcDbLine
 10
6368.0308833002
 20
7225.9651288775
 30
0.0
 11
6368.0308833002
 21
7284.9651288775
 31
0.0
  0
LINE
  5
298
330
1F
100
AcDbEntity
  8
0
  6
SLD-Plná
 62
     7
370
    25
100
AcDbLine
 10
6369.0308833002
 20
7284.9651288775
 30
0.0
 11
6368.0308833002
 21
7284.9651288775
 31
0.0
  0
LINE
  5
299
330
1F
100
AcDbEntity
  8
0
  6
SLD-Plná
 62
     7
370
    25
100
AcDbLine
 10
6376.0308833002
 20
7225.9651288775
 30
0.0
 11
6376.0308833002
 21
7284.9651288775
 31
0.0
  0
LINE
  5
29A
330
1F
100
AcDbEntity
  8
0
  6
SLD-Plná
 62
     7
370
    25
100
AcDbLine
 10
6369.0308833002
 20
7225.9651288775
 30
0.0
 11
6376.0308833002
 21
7225.9651288775
 31
0.0
  0
LINE
  5
29B
330
1F
100
AcDbEntity
  8
0
  6
SLD-Plná
 62
     7
370
    25
100
AcDbLine
 10
6376.0308833002
 20
7284.9651288775
 30
0.0
 11
6369.0308833002
 21
7284.9651288775
 31
0.0
  0
LINE
  5
29C
330
1F
100
AcDbEntity
  8
0
  6
SLD-Plná
 62
     7
370
    25
100
AcDbLine
 10
6376.0308833002
 20
7225.9651288775
 30
0.0
 11
6376.0308833002
 21
7224.9651288775
 31
0.0
  0
LINE
  5
29D
330
1F
100
AcDbEntity
  8
0
  6
SLD-Plná
 62
     7
370
    25
100
AcDbLine
 10
6376.0308833002
 20
7224.9651288775
 30
0.0
 11
6369.0308833002
 21
7224.9651288775
 31
0.0
  0
ARC
  5
29E
330
1F
100
AcDbEntity
  8
0
  6
SLD-Plná
 62
     7
370
    25
100
AcDbCircle
 10
6369.0308833002
 20
7284.9651288775
 30
0.0
 40
1.000000000000909
100
AcDbArc
 50
90.0
 51
180.0
  0
LINE
  5
29F
330
1F
100
AcDbEntity
  8
0
  6
SLD-Plná
 62
     7
370
    25
100
AcDbLine
 10
6369.0308833002
 20
7285.9651288775
 30
0.0
 11
6369.0308833002
 21
7284.9651288775
 31
0.0
  0
LINE
  5
2A0
330
1F
100
AcDbEntity
  8
0
  6
SLD-Plná
 62
     7
370
    25
100
AcDbLine
 10
6369.0308833002
 20
7285.9651288775
 30
0.0
 11
6376.0308833002
 21
7285.9651288775
 31
0.0
  0
LINE
  5
2A1
330
1F
100
AcDbEntity
  8
0
  6
SLD-Plná
 62
     7
370
    25
100
AcDbLine
 10
6376.0308833002
 20
7285.9651288775
 30
0.0
 11
6376.0308833002
 21
7284.9651288775
 31
0.0
  0
LINE
  5
2A2
330
1F
100
AcDbEntity
  8
0
  6
SLD-Plná
 62
     7
370
    25
100
AcDbLine
 10
6377.0308833002
 20
7284.9651288775
 30
0.0
 11
6377.0308833002
 21
7225.9651288775
 31
0.0
  0
LINE
  5
2A3
330
1F
100
AcDbEntity
  8
0
  6
SLD-Plná
 62
     7
370
    25
100
AcDbLine
 10
6377.0308833002
 20
7225.9651288775
 30
0.0
 11
6376.0308833002
 21
7225.9651288775
 31
0.0
  0
LINE
  5
2A4
330
1F
100
AcDbEntity
  8
0
  6
SLD-Plná
 62
     7
370
    25
100
AcDbLine
 10
6377.0308833002
 20
7284.9651288775
 30
0.0
 11
6376.0308833002
 21
7284.9651288775
 31
0.0
  0
ARC
  5
2A5
330
1F
100
AcDbEntity
  8
0
  6
SLD-Plná
 62
     7
370
    25
100
AcDbCircle
 10
6376.0308833002
 20
7225.9651288775
 30
0.0
 40
0.9999999999990905
100
AcDbArc
 50
270.0
 51
0.0
  0
ARC
  5
2A6
330
1F
100
AcDbEntity
  8
0
  6
SLD-Plná
 62
     7
370
    25
100
AcDbCircle
 10
6376.0308833002
 20
7284.9651288775
 30
0.0
 40
1.000000000000909
100
AcDbArc
 50
0.0
 51
90.0
  0
LINE
  5
2A7
330
1F
100
AcDbEntity
  8
0
  6
SLD-Plná
 62
     7
370
    25
100
AcDbLine
 10
6377.9197721891
 20
7225.9651288775
 30
0.0
 11
6377.0308833002
 21
7225.9651288775
 31
0.0
  0
ARC
  5
2A8
330
1F
100
AcDbEntity
  8
0
  6
SLD-Plná
 62
     7
370
    25
100
AcDbCircle
 10
6375.5864388557
 20
7225.7182152972
 30
0.0
 40
2.346361174357589
100
AcDbArc
 50
341.2790513252
 51
6.0405651829
  0
LINE
  5
2A9
330
1F
100
AcDbEntity
  8
0
  6
SLD-Plná
 62
     7
370
    25
100
AcDbLine
 10
6376.0308833002
 20
7224.9651288775
 30
0.0
 11
6377.808661078
 21
7224.9651288775
 31
0.0
  0
LINE
  5
2AA
330
1F
100
AcDbEntity
  8
0
  6
SLD-Plná
 62
     7
370
    25
100
AcDbLine
 10
6378.0308833002
 20
7258.9651288775
 30
0.0
 11
6378.5157678591
 21
7258.4802443185
 31
0.0
  0
LINE
  5
2AB
330
1F
100
AcDbEntity
  8
0
  6
SLD-Plná
 62
     7
370
    25
100
AcDbLine
 10
6384.0308833002
 20
7224.9651288775
 30
0.0
 11
6377.808661078
 21
7224.9651288775
 31
0.0
  0
LINE
  5
2AC
330
1F
100
AcDbEntity
  8
0
  6
SLD-Plná
 62
     7
370
    25
100
AcDbLine
 10
6380.3804132827
 20
7230.3651288775
 30
0.0
 11
6385.0308833002
 21
7230.3651288775
 31
0.0
  0
LINE
  5
2AD
330
1F
100
AcDbEntity
  8
0
  6
SLD-Plná
 62
     7
370
    25
100
AcDbLine
 10
6380.3804132827
 20
7230.3651288775
 30
0.0
 11
6380.3804132827
 21
7229.1651288775
 31
0.0
  0
LINE
  5
2AE
330
1F
100
AcDbEntity
  8
0
  6
SLD-Plná
 62
     7
370
    25
100
AcDbLine
 10
6385.0308833002
 20
7229.1651288775
 30
0.0
 11
6380.3804132827
 21
7229.1651288775
 31
0.0
  0
LINE
  5
2AF
330
1F
100
AcDbEntity
  8
0
  6
SLD-Plná
 62
     7
370
    25
100
AcDbLine
 10
6380.3804132827
 20
7233.5651288775
 30
0.0
 11
6385.0308833002
 21
7233.5651288775
 31
0.0
  0
LINE
  5
2B0
330
1F
100
AcDbEntity
  8
0
  6
SLD-Plná
 62
     7
370
    25
100
AcDbLine
 10
6380.3804132827
 20
7233.5651288775
 30
0.0
 11
6380.3804132827
 21
7232.3651288775
 31
0.0
  0
LINE
  5
2B1
330
1F
100
AcDbEntity
  8
0
  6
SLD-Plná
 62
     7
370
    25
100
AcDbLine
 10
6385.0308833002
 20
7232.3651288775
 30
0.0
 11
6380.3804132827
 21
7232.3651288775
 31
0.0
  0
LINE
  5
2B2
330
1F
100
AcDbEntity
  8
0
  6
SLD-Plná
 62
     7
370
    25
100
AcDbLine
 10
6380.3804132827
 20
7236.7651288775
 30
0.0
 11
6385.0308833002
 21
7236.7651288775
 31
0.0
  0
LINE
  5
2B3
330
1F
100
AcDbEntity
  8
0
  6
SLD-Plná
 62
     7
370
    25
100
AcDbLine
 10
6380.3804132827
 20
7236.7651288775
 30
0.0
 11
6380.3804132827
 21
7235.5651288775
 31
0.0
  0
LINE
  5
2B4
330
1F
100
AcDbEntity
  8
0
  6
SLD-Plná
 62
     7
370
    25
100
AcDbLine
 10
6385.0308833002
 20
7235.5651288775
 30
0.0
 11
6380.3804132827
 21
7235.5651288775
 31
0.0
  0
LINE
  5
2B5
330
1F
100
AcDbEntity
  8
0
  6
SLD-Plná
 62
     7
370
    25
100
AcDbLine
 10
6380.3804132827
 20
7239.9651288775
 30
0.0
 11
6385.0308833002
 21
7239.9651288775
 31
0.0
  0
LINE
  5
2B6
330
1F
100
AcDbEntity
  8
0
  6
SLD-Plná
 62
     7
370
    25
100
AcDbLine
 10
6380.3804132827
 20
7239.9651288775
 30
0.0
 11
6380.3804132827
 21
7238.7651288775
 31
0.0
  0
LINE
  5
2B7
330
1F
100
AcDbEntity
  8
0
  6
SLD-Plná
 62
     7
370
    25
100
AcDbLine
 10
6385.0308833002
 20
7238.7651288775
 30
0.0
 11
6380.3804132827
 21
7238.7651288775
 31
0.0
  0
LINE
  5
2B8
330
1F
100
AcDbEntity
  8
0
  6
SLD-Plná
 62
     7
370
    25
100
AcDbLine
 10
6380.3804132827
 20
7243.1651288775
 30
0.0
 11
6385.0308833002
 21
7243.1651288775
 31
0.0
  0
LINE
  5
2B9
330
1F
100
AcDbEntity
  8
0
  6
SLD-Plná
 62
     7
370
    25
100
AcDbLine
 10
6380.3804132827
 20
7243.1651288775
 30
0.0
 11
6380.3804132827
 21
7241.9651288775
 31
0.0
  0
LINE
  5
2BA
330
1F
100
AcDbEntity
  8
0
  6
SLD-Plná
 62
     7
370
    25
100
AcDbLine
 10
6385.0308833002
 20
7241.9651288775
 30
0.0
 11
6380.3804132827
 21
7241.9651288775
 31
0.0
  0
LINE
  5
2BB
330
1F
100
AcDbEntity
  8
0
  6
SLD-Plná
 62
     7
370
    25
100
AcDbLine
 10
6378.5157678591
 20
7258.4802443185
 30
0.0
 11
6384.7379900787
 21
7252.258022099
 31
0.0
  0
LINE
  5
2BC
330
1F
100
AcDbEntity
  8
0
  6
SLD-Plná
 62
     7
370
    25
100
AcDbLine
 10
6371.1808833002
 20
7224.9651288775
 30
0.0
 11
6371.1808833002
 21
7218.309560684
 31
0.0
  0
LWPOLYLINE
  5
2BD
330
1F
100
AcDbEntity
  8
0
  6
SLD-Plná
 62
     7
370
    25
100
AcDbPolyline
 90
        9
 70
   128
 43
0.0
 10
6371.1808833002
 20
7218.309560684
 10
6371.0345655587
 20
7218.3173535631
 10
6370.8938707259
 20
7218.3404327245
 10
6370.7642056254
 20
7218.3779112489
 10
6370.6505532143
 20
7218.4283488576
 10
6370.557281091
 20
7218.4898072617
 10
6370.4879736508
 20
7218.5599246492
 10
6370.4452943399
 20
7218.636006448
 10
6370.4308833002
 20
7218.7151288775
  0
LINE
  5
2BE
330
1F
100
AcDbEntity
  8
0
  6
SLD-Plná
 62
     7
370
    25
100
AcDbLine
 10
6370.4308833002
 20
7218.7151288775
 30
0.0
 11
6370.4308833002
 21
7224.9651288775
 31
0.0
  0
LINE
  5
2BF
330
1F
100
AcDbEntity
  8
0
  6
SLD-Plná
 62
     7
370
    25
100
AcDbLine
 10
6373.8808833002
 20
7218.309560684
 30
0.0
 11
6373.8808833002
 21
7224.9651288775
 31
0.0
  0
LINE
  5
2C0
330
1F
100
AcDbEntity
  8
0
  6
SLD-Plná
 62
     7
370
    25
100
AcDbLine
 10
6371.1808833002
 20
7218.309560684
 30
0.0
 11
6373.8808833002
 21
7218.309560684
 31
0.0
  0
LINE
  5
2C1
330
1F
100
AcDbEntity
  8
0
  6
SLD-Plná
 62
     7
370
    25
100
AcDbLine
 10
6374.6308833002
 20
7224.9651288775
 30
0.0
 11
6374.6308833002
 21
7218.7151288775
 31
0.0
  0
LWPOLYLINE
  5
2C2
330
1F
100
AcDbEntity
  8
0
  6
SLD-Plná
 62
     7
370
    25
100
AcDbPolyline
 90
        9
 70
   128
 43
0.0
 10
6374.6308833002
 20
7218.7151288775
 10
6374.6164722605
 20
7218.636006448
 10
6374.5737929496
 20
7218.5599246492
 10
6374.5044855094
 20
7218.4898072617
 10
6374.4112133861
 20
7218.4283488576
 10
6374.2975609749
 20
7218.3779112489
 10
6374.1678958745
 20
7218.3404327245
 10
6374.0272010417
 20
7218.3173535631
 10
6373.8808833002
 20
7218.309560684
  0
ARC
  5
2C3
330
1F
100
AcDbEntity
  8
0
  6
SLD-Plná
 62
     7
370
    25
100
AcDbCircle
 10
6371.1808833002
 20
7218.7151288775
 30
0.0
 40
0.75
100
AcDbArc
 50
180.0
 51
270.0
  0
LINE
  5
2C4
330
1F
100
AcDbEntity
  8
0
  6
SLD-Plná
 62
     7
370
    25
100
AcDbLine
 10
6371.1808833002
 20
7217.9651288775
 30
0.0
 11
6371.1808833002
 21
7218.309560684
 31
0.0
  0
LINE
  5
2C5
330
1F
100
AcDbEntity
  8
0
  6
SLD-Plná
 62
     7
370
    25
100
AcDbLine
 10
6373.8808833002
 20
7217.9651288775
 30
0.0
 11
6371.1808833002
 21
7217.9651288775
 31
0.0
  0
LINE
  5
2C6
330
1F
100
AcDbEntity
  8
0
  6
SLD-Plná
 62
     7
370
    25
100
AcDbLine
 10
6373.8808833002
 20
7217.9651288775
 30
0.0
 11
6373.8808833002
 21
7218.309560684
 31
0.0
  0
ARC
  5
2C7
330
1F
100
AcDbEntity
  8
0
  6
SLD-Plná
 62
     7
370
    25
100
AcDbCircle
 10
6373.8808833002
 20
7218.7151288775
 30
0.0
 40
0.75
100
AcDbArc
 50
270.0
 51
0.0
  0
LINE
  5
2C8
330
1F
100
AcDbEntity
  8
0
  6
SLD-Plná
 62
     7
370
    25
100
AcDbLine
 10
6372.5308833002
 20
7287.9651288775
 30
0.0
 11
6372.5813935574
 21
7287.9651288775
 31
0.0
  0
LINE
  5
2C9
330
1F
100
AcDbEntity
  8
0
  6
SLD-Plná
 62
     7
370
    25
100
AcDbLine
 10
6372.480373043
 20
7287.9651288775
 30
0.0
 11
6372.5308833002
 21
7287.9651288775
 31
0.0
  0
LINE
  5
2CA
330
1F
100
AcDbEntity
  8
0
  6
SLD-Plná
 62
     8
370
    25
100
AcDbLine
 10
6377.9197721891
 20
7256.150859197
 30
0.0
 11
6377.9197721891
 21
7250.029398558
 31
0.0
  0
LINE
  5
2CB
330
1F
100
AcDbEntity
  8
0
  6
SLD-Plná
 62
     8
370
    25
100
AcDbLine
 10
6377.9197721891
 20
7246.900859197
 30
0.0
 11
6377.9197721891
 21
7225.9651288775
 31
0.0
  0
ARC
  5
2CC
330
1F
100
AcDbEntity
  8
0
  6
SLD-Plná
 62
     8
370
    25
100
AcDbCircle
 10
6376.3052429321
 20
7259.7903413331
 30
0.0
 40
2.569586472661834
100
AcDbArc
 50
312.0349947605
 51
329.3463334919
  0
LINE
  5
2CD
330
1F
100
AcDbEntity
  8
0
  6
SLD-Plná
 62
     8
370
    25
100
AcDbLine
 10
6377.9197721891
 20
7225.9651288775
 30
0.0
 11
6385.0308833002
 21
7225.9651288775
 31
0.0
  0
LINE
  5
2CE
330
1F
100
AcDbEntity
  8
0
  6
SLD-Plná
 62
     8
370
    25
100
AcDbLine
 10
6385.0308833002
 20
7251.5509153151
 30
0.0
 11
6378.0308833002
 21
7257.6759153151
 31
0.0
  0
LINE
  5
2CF
330
1F
100
AcDbEntity
  8
0
  6
SLD-Plná
 62
     7
370
    25
100
AcDbLine
 10
6242.6722289142
 20
7113.3377439047
 30
0.0
 11
6242.6722289142
 21
7112.8377439047
 31
0.0
  0
LINE
  5
2D0
330
1F
100
AcDbEntity
  8
0
  6
SLD-Plná
 62
     7
370
    25
100
AcDbLine
 10
6241.6722289142
 20
7112.8377439047
 30
0.0
 11
6242.6722289142
 21
7112.8377439047
 31
0.0
  0
LINE
  5
2D1
330
1F
100
AcDbEntity
  8
0
  6
SLD-Plná
 62
     7
370
    25
100
AcDbLine
 10
6241.6722289142
 20
7112.8377439047
 30
0.0
 11
6241.6722289142
 21
7113.3377439047
 31
0.0
  0
LINE
  5
2D2
330
1F
100
AcDbEntity
  8
0
  6
SLD-Plná
 62
     7
370
    25
100
AcDbLine
 10
6248.6722289142
 20
7112.8377439047
 30
0.0
 11
6248.6722289142
 21
7113.3377439047
 31
0.0
  0
LINE
  5
2D3
330
1F
100
AcDbEntity
  8
0
  6
SLD-Plná
 62
     7
370
    25
100
AcDbLine
 10
6249.6722289142
 20
7113.3377439047
 30
0.0
 11
6249.6722289142
 21
7112.8377439047
 31
0.0
  0
LINE
  5
2D4
330
1F
100
AcDbEntity
  8
0
  6
SLD-Plná
 62
     7
370
    25
100
AcDbLine
 10
6248.6722289142
 20
7112.8377439047
 30
0.0
 11
6249.6722289142
 21
7112.8377439047
 31
0.0
  0
LINE
  5
2D5
330
1F
100
AcDbEntity
  8
0
  6
SLD-Plná
 62
     7
370
    25
100
AcDbLine
 10
6248.6722289142
 20
7112.3377439047
 30
0.0
 11
6248.6722289142
 21
7112.8377439047
 31
0.0
  0
ARC
  5
2D6
330
1F
100
AcDbEntity
  8
0
  6
SLD-Plná
 62
     7
370
    25
100
AcDbCircle
 10
6249.1722289142
 20
7112.8377439047
 30
0.0
 40
0.5000000000009095
100
AcDbArc
 50
270.0
 51
0.0
  0
LINE
  5
2D7
330
1F
100
AcDbEntity
  8
0
  6
SLD-Plná
 62
     7
370
    25
100
AcDbLine
 10
6249.1722289142
 20
7112.3377439047
 30
0.0
 11
6249.0403704371
 21
7112.3377439047
 31
0.0
  0
SPLINE
  5
2D8
330
1F
100
AcDbEntity
  8
0
  6
SLD-Plná
 62
     7
370
    25
100
AcDbSpline
210
0.0
220
0.0
230
1.0
 70
     8
 71
     3
 72
     8
 73
     4
 74
     0
 42
0.00000001
 43
0.00000001
 40
0.0
 40
0.0
 40
0.0
 40
0.0
 40
1.0
 40
1.0
 40
1.0
 40
1.0
 10
6249.270637058429
 20
7112.437743904653
 30
0.0
 10
6249.204128340451
 20
7112.372739782233
 30
0.0
 10
6249.123110397359
 20
7112.337743904654
 30
0.0
 10
6249.040370437115
 20
7112.337743904654
 30
0.0
  0
LINE
  5
2D9
330
1F
100
AcDbEntity
  8
0
  6
SLD-Plná
 62
     7
370
    25
100
AcDbLine
 10
6249.0489218732
 20
7112.4377439047
 30
0.0
 11
6249.2706370584
 21
7112.4377439047
 31
0.0
  0
SPLINE
  5
2DA
330
1F
100
AcDbEntity
  8
0
  6
SLD-Plná
 62
     7
370
    25
100
AcDbSpline
210
0.0
220
0.0
230
1.0
 70
     8
 71
     3
 72
     8
 73
     4
 74
     0
 42
0.00000001
 43
0.00000001
 40
0.0
 40
0.0
 40
0.0
 40
0.0
 40
1.0
 40
1.0
 40
1.0
 40
1.0
 10
6248.786979044413
 20
7112.337743904654
 30
0.0
 10
6248.87861813474
 20
7112.337743904654
 30
0.0
 10
6248.972324883911
 20
7112.368300444584
 30
0.0
 10
6249.04892187323
 20
7112.437743904653
 30
0.0
  0
LINE
  5
2DB
330
1F
100
AcDbEntity
  8
0
  6
SLD-Plná
 62
     7
370
    25
100
AcDbLine
 10
6248.7869790444
 20
7112.3377439047
 30
0.0
 11
6248.6722289142
 21
7112.3377439047
 31
0.0
  0
ELLIPSE
  5
2DC
330
1F
100
AcDbEntity
  8
0
  6
SLD-Plná
 62
     7
370
    25
100
AcDbEllipse
 10
6242.479149357
 20
7112.8377439047
 30
0.0
 11
0.5977443609026523
 21
0.0
 31
0.0
210
0.0
220
0.0
230
1.0
 40
0.8364779874
 41
5.04130103953335
 42
5.355890089176116
  0
LINE
  5
2DD
330
1F
100
AcDbEntity
  8
0
  6
SLD-Plná
 62
     7
370
    25
100
AcDbLine
 10
6242.6722289142
 20
7112.364546743
 30
0.0
 11
6242.6722289142
 21
7112.8377439047
 31
0.0
  0
LINE
  5
2DE
330
1F
100
AcDbEntity
  8
0
  6
SLD-Plná
 62
     7
370
    25
100
AcDbLine
 10
6248.6722289142
 20
7112.3377439047
 30
0.0
 11
6247.6722289142
 21
7112.3377439047
 31
0.0
  0
LINE
  5
2DF
330
1F
100
AcDbEntity
  8
0
  6
SLD-Plná
 62
     7
370
    25
100
AcDbLine
 10
6243.6722289142
 20
7112.3377439047
 30
0.0
 11
6242.9031978911
 21
7112.3377439047
 31
0.0
  0
ELLIPSE
  5
2E0
330
1F
100
AcDbEntity
  8
0
  6
SLD-Plná
 62
     7
370
    25
100
AcDbEllipse
 10
6242.9031978911
 20
7112.8377439047
 30
0.0
 11
0.596590208841917
 21
0.0
 31
0.0
210
0.0
220
0.0
230
1.0
 40
0.8380962218
 41
4.712388980384701
 42
5.355890089178065
  0
LINE
  5
2E1
330
1F
100
AcDbEntity
  8
0
  6
SLD-Plná
 62
     7
370
    25
100
AcDbLine
 10
6242.8377959736
 20
7112.4377439047
 30
0.0
 11
6243.2611520164
 21
7112.4377439047
 31
0.0
  0
SPLINE
  5
2E2
330
1F
100
AcDbEntity
  8
0
  6
SLD-Plná
 62
     7
370
    25
100
AcDbSpline
210
0.0
220
0.0
230
1.0
 70
     8
 71
     3
 72
    14
 73
    10
 74
     0
 42
0.00000001
 43
0.00000001
 40
0.0
 40
0.0
 40
0.0
 40
0.0
 40
0.25
 40
0.25
 40
0.5
 40
0.5
 40
0.75
 40
0.75
 40
1.0
 40
1.0
 40
1.0
 40
1.0
 10
6241.881404996129
 20
7112.431023547771
 30
0.0
 10
6241.940899995912
 20
7112.38848186367
 30
0.0
 10
6242.006114519061
 20
7112.364902649235
 30
0.0
 10
6242.139158988353
 20
7112.340091298635
 30
0.0
 10
6242.205843291145
 20
7112.338554911124
 30
0.0
 10
6242.339241670933
 20
7112.337478977483
 30
0.0
 10
6242.405942719964
 20
7112.337065695722
 30
0.0
 10
6242.539410523842
 20
7112.34064576913
 30
0.0
 10
6242.60664525408
 20
7112.345822733814
 30
0.0
 10
6242.672228914158
 20
7112.364546743037
 30
0.0
  0
ARC
  5
2E3
330
1F
100
AcDbEntity
  8
0
  6
SLD-Plná
 62
     7
370
    25
100
AcDbCircle
 10
6242.1722289142
 20
7112.8377439047
 30
0.0
 40
0.5000000000005894
100
AcDbArc
 50
180.0
 51
234.4334736966
  0
LINE
  5
2E4
330
1F
100
AcDbEntity
  8
0
  6
SLD-Plná
 62
     7
370
    25
100
AcDbLine
 10
6242.9031978911
 20
7112.3377439047
 30
0.0
 11
6242.1722289142
 21
7112.3377439047
 31
0.0
  0
LINE
  5
2E5
330
1F
100
AcDbEntity
  8
0
  6
SLD-Plná
 62
     7
370
    25
100
AcDbLine
 10
6249.0403704371
 20
7112.3377439047
 30
0.0
 11
6248.7869790444
 21
7112.3377439047
 31
0.0
  0
LINE
  5
2E6
330
1F
100
AcDbEntity
  8
0
  6
SLD-Plná
 62
     7
370
    25
100
AcDbLine
 10
6247.1722289142
 20
7112.8377439047
 30
0.0
 11
6247.1722289142
 21
7113.3377439047
 31
0.0
  0
LINE
  5
2E7
330
1F
100
AcDbEntity
  8
0
  6
SLD-Plná
 62
     7
370
    25
100
AcDbLine
 10
6244.1722289142
 20
7112.8377439047
 30
0.0
 11
6247.1722289142
 21
7112.8377439047
 31
0.0
  0
LINE
  5
2E8
330
1F
100
AcDbEntity
  8
0
  6
SLD-Plná
 62
     7
370
    25
100
AcDbLine
 10
6244.1722289142
 20
7113.3377439047
 30
0.0
 11
6244.1722289142
 21
7112.8377439047
 31
0.0
  0
LINE
  5
2E9
330
1F
100
AcDbEntity
  8
0
  6
SLD-Plná
 62
     7
370
    25
100
AcDbLine
 10
6248.1722289142
 20
7113.3377439047
 30
0.0
 11
6248.1722289142
 21
7112.8377439047
 31
0.0
  0
LINE
  5
2EA
330
1F
100
AcDbEntity
  8
0
  6
SLD-Plná
 62
     7
370
    25
100
AcDbLine
 10
6247.1722289142
 20
7112.8377439047
 30
0.0
 11
6248.1722289142
 21
7112.8377439047
 31
0.0
  0
LINE
  5
2EB
330
1F
100
AcDbEntity
  8
0
  6
SLD-Plná
 62
     7
370
    25
100
AcDbLine
 10
6243.1722289142
 20
7112.8377439047
 30
0.0
 11
6244.1722289142
 21
7112.8377439047
 31
0.0
  0
LINE
  5
2EC
330
1F
100
AcDbEntity
  8
0
  6
SLD-Plná
 62
     7
370
    25
100
AcDbLine
 10
6243.1722289142
 20
7112.8377439047
 30
0.0
 11
6243.1722289142
 21
7113.3377439047
 31
0.0
  0
LINE
  5
2ED
330
1F
100
AcDbEntity
  8
0
  6
SLD-Plná
 62
     7
370
    25
100
AcDbLine
 10
6244.1722289142
 20
7112.3605525443
 30
0.0
 11
6244.1722289142
 21
7112.8377439047
 31
0.0
  0
SPLINE
  5
2EE
330
1F
100
AcDbEntity
  8
0
  6
SLD-Plná
 62
     7
370
    25
100
AcDbSpline
210
0.0
220
0.0
230
1.0
 70
     8
 71
     3
 72
     8
 73
     4
 74
     0
 42
0.00000001
 43
0.00000001
 40
0.0
 40
0.0
 40
0.0
 40
0.0
 40
1.0
 40
1.0
 40
1.0
 40
1.0
 10
6243.886703902289
 20
7112.337743904654
 30
0.0
 10
6243.981913172465
 20
7112.337743904654
 30
0.0
 10
6244.077131808841
 20
7112.335665762303
 30
0.0
 10
6244.172228914158
 20
7112.360552544278
 30
0.0
  0
LINE
  5
2EF
330
1F
100
AcDbEntity
  8
0
  6
SLD-Plná
 62
     7
370
    25
100
AcDbLine
 10
6243.8867039023
 20
7112.3377439047
 30
0.0
 11
6243.8186755236
 21
7112.3377439047
 31
0.0
  0
SPLINE
  5
2F0
330
1F
100
AcDbEntity
  8
0
  6
SLD-Plná
 62
     7
370
    25
100
AcDbSpline
210
0.0
220
0.0
230
1.0
 70
     8
 71
     3
 72
    10
 73
     6
 74
     0
 42
0.00000001
 43
0.00000001
 40
0.0
 40
0.0
 40
0.0
 40
0.0
 40
0.5
 40
0.5
 40
1.0
 40
1.0
 40
1.0
 40
1.0
 10
6243.396006432555
 20
7112.420969216535
 30
0.0
 10
6243.461011239624
 20
7112.377886491894
 30
0.0
 10
6243.532296813181
 20
7112.356510793955
 30
0.0
 10
6243.675532110251
 20
7112.336933911741
 30
0.0
 10
6243.747101991587
 20
7112.337743904654
 30
0.0
 10
6243.818675523565
 20
7112.337743904654
 30
0.0
  0
ARC
  5
2F1
330
1F
100
AcDbEntity
  8
0
  6
SLD-Plná
 62
     7
370
    25
100
AcDbCircle
 10
6243.6722289142
 20
7112.8377439047
 30
0.0
 40
0.5000000000009095
100
AcDbArc
 50
180.0
 51
236.4650901113
  0
ELLIPSE
  5
2F2
330
1F
100
AcDbEntity
  8
0
  6
SLD-Plná
 62
     7
370
    25
100
AcDbEllipse
 10
6245.6491061059
 20
7112.8377439047
 30
0.0
 11
0.5977443609017428
 21
0.0
 31
0.0
210
0.0
220
0.0
230
1.0
 40
0.8364779874
 41
4.712388980384701
 42
5.355890089176846
  0
LINE
  5
2F3
330
1F
100
AcDbEntity
  8
0
  6
SLD-Plná
 62
     7
370
    25
100
AcDbLine
 10
6245.6491061059
 20
7112.3377439047
 30
0.0
 11
6244.4244540336
 21
7112.3377439047
 31
0.0
  0
ELLIPSE
  5
2F4
330
1F
100
AcDbEntity
  8
0
  6
SLD-Plná
 62
     7
370
    25
100
AcDbEllipse
 10
6244.4244540336
 20
7112.8377439047
 30
0.0
 11
0.5977443609017428
 21
0.0
 31
0.0
210
0.0
220
0.0
230
1.0
 40
0.8364779874
 41
4.712388980384701
 42
5.355890089176846
  0
LINE
  5
2F5
330
1F
100
AcDbEntity
  8
0
  6
SLD-Plná
 62
     7
370
    25
100
AcDbLine
 10
6244.35239741
 20
7112.4377439047
 30
0.0
 11
6244.7831006501
 21
7112.4377439047
 31
0.0
  0
ELLIPSE
  5
2F6
330
1F
100
AcDbEntity
  8
0
  6
SLD-Plná
 62
     7
370
    25
100
AcDbEllipse
 10
6243.9937507935
 20
7112.8377439047
 30
0.0
 11
0.5977443609026523
 21
0.0
 31
0.0
210
0.0
220
0.0
230
1.0
 40
0.8364779874
 41
5.015599744663972
 42
5.355890089177333
  0
LINE
  5
2F7
330
1F
100
AcDbEntity
  8
0
  6
SLD-Plná
 62
     7
370
    25
100
AcDbLine
 10
6247.1722289142
 20
7112.3377439047
 30
0.0
 11
6247.1722289142
 21
7112.8377439047
 31
0.0
  0
LINE
  5
2F8
330
1F
100
AcDbEntity
  8
0
  6
SLD-Plná
 62
     7
370
    25
100
AcDbLine
 10
6247.1722289142
 20
7112.3377439047
 30
0.0
 11
6246.0798093461
 21
7112.3377439047
 31
0.0
  0
ELLIPSE
  5
2F9
330
1F
100
AcDbEntity
  8
0
  6
SLD-Plná
 62
     7
370
    25
100
AcDbEllipse
 10
6246.0798093461
 20
7112.8377439047
 30
0.0
 11
0.5977443609026523
 21
0.0
 31
0.0
210
0.0
220
0.0
230
1.0
 40
0.8364779874
 41
4.712388980384701
 42
5.355890089176116
  0
LINE
  5
2FA
330
1F
100
AcDbEntity
  8
0
  6
SLD-Plná
 62
     7
370
    25
100
AcDbLine
 10
6246.0077527225
 20
7112.4377439047
 30
0.0
 11
6246.4384559626
 21
7112.4377439047
 31
0.0
  0
ARC
  5
2FB
330
1F
100
AcDbEntity
  8
0
  6
SLD-Plná
 62
     7
370
    25
100
AcDbCircle
 10
6247.6722289142
 20
7112.8377439047
 30
0.0
 40
0.5000000000009095
100
AcDbArc
 50
270.0
 51
0.0
  0
LINE
  5
2FC
330
1F
100
AcDbEntity
  8
0
  6
SLD-Plná
 62
     7
370
    25
100
AcDbLine
 10
6247.6722289142
 20
7112.3377439047
 30
0.0
 11
6247.6022860894
 21
7112.3377439047
 31
0.0
  0
SPLINE
  5
2FD
330
1F
100
AcDbEntity
  8
0
  6
SLD-Plná
 62
     7
370
    25
100
AcDbSpline
210
0.0
220
0.0
230
1.0
 70
     8
 71
     3
 72
     8
 73
     4
 74
     0
 42
0.00000001
 43
0.00000001
 40
0.0
 40
0.0
 40
0.0
 40
0.0
 40
1.0
 40
1.0
 40
1.0
 40
1.0
 10
6247.834275169432
 20
7112.437743904653
 30
0.0
 10
6247.767213665334
 20
7112.37250277288
 30
0.0
 10
6247.685568936879
 20
7112.337743904654
 30
0.0
 10
6247.602286089372
 20
7112.337743904654
 30
0.0
  0
LINE
  5
2FE
330
1F
100
AcDbEntity
  8
0
  6
SLD-Plná
 62
     7
370
    25
100
AcDbLine
 10
6247.6413602551
 20
7112.4377439047
 30
0.0
 11
6247.8342751694
 21
7112.4377439047
 31
0.0
  0
SPLINE
  5
2FF
330
1F
100
AcDbEntity
  8
0
  6
SLD-Plná
 62
     7
370
    25
100
AcDbSpline
210
0.0
220
0.0
230
1.0
 70
     8
 71
     3
 72
     8
 73
     4
 74
     0
 42
0.00000001
 43
0.00000001
 40
0.0
 40
0.0
 40
0.0
 40
0.0
 40
1.0
 40
1.0
 40
1.0
 40
1.0
 10
6247.399250670633
 20
7112.337743904654
 30
0.0
 10
6247.485536461247
 20
7112.337743904654
 30
0.0
 10
6247.570996364238
 20
7112.371040474245
 30
0.0
 10
6247.641360255097
 20
7112.437743904653
 30
0.0
  0
LINE
  5
300
330
1F
100
AcDbEntity
  8
0
  6
SLD-Plná
 62
     7
370
    25
100
AcDbLine
 10
6247.3992506706
 20
7112.3377439047
 30
0.0
 11
6247.1722289142
 21
7112.3377439047
 31
0.0
  0
LINE
  5
301
330
1F
100
AcDbEntity
  8
0
  6
SLD-Plná
 62
     7
370
    25
100
AcDbLine
 10
6244.4244540336
 20
7112.3377439047
 30
0.0
 11
6243.8867039023
 21
7112.3377439047
 31
0.0
  0
LINE
  5
302
330
1F
100
AcDbEntity
  8
0
  6
SLD-Plná
 62
     7
370
    25
100
AcDbLine
 10
6243.8186755236
 20
7112.3377439047
 30
0.0
 11
6243.6722289142
 21
7112.3377439047
 31
0.0
  0
LINE
  5
303
330
1F
100
AcDbEntity
  8
0
  6
SLD-Plná
 62
     7
370
    25
100
AcDbLine
 10
6246.0798093461
 20
7112.3377439047
 30
0.0
 11
6245.6491061059
 21
7112.3377439047
 31
0.0
  0
LINE
  5
304
330
1F
100
AcDbEntity
  8
0
  6
SLD-Plná
 62
     7
370
    25
100
AcDbLine
 10
6247.6022860894
 20
7112.3377439047
 30
0.0
 11
6247.3992506706
 21
7112.3377439047
 31
0.0
  0
CIRCLE
  5
305
330
1F
100
AcDbEntity
  8
0
  6
SLD-Plná
 62
     7
370
    25
100
AcDbCircle
 10
6263.9222289142
 20
7117.8377439047
 30
0.0
 40
0.0505102572169562
  0
CIRCLE
  5
306
330
1F
100
AcDbEntity
  8
0
  6
SLD-Plná
 62
     7
370
    25
100
AcDbCircle
 10
6263.9222289142
 20
7117.8377439047
 30
0.0
 40
2.499999999999091
  0
LINE
  5
307
330
1F
100
AcDbEntity
  8
0
  6
SLD-Plná
 62
     7
370
    25
100
AcDbLine
 10
6240.9222289142
 20
7114.3377439047
 30
0.0
 11
6267.9222289142
 21
7114.3377439047
 31
0.0
  0
LINE
  5
308
330
1F
100
AcDbEntity
  8
0
  6
SLD-Plná
 62
     7
370
    25
100
AcDbLine
 10
6240.9222289142
 20
7121.3377439047
 30
0.0
 11
6240.9222289142
 21
7114.3377439047
 31
0.0
  0
LINE
  5
309
330
1F
100
AcDbEntity
  8
0
  6
SLD-Plná
 62
     7
370
    25
100
AcDbLine
 10
6267.9222289142
 20
7121.3377439047
 30
0.0
 11
6240.9222289142
 21
7121.3377439047
 31
0.0
  0
LINE
  5
30A
330
1F
100
AcDbEntity
  8
0
  6
SLD-Plná
 62
     7
370
    25
100
AcDbLine
 10
6267.9222289142
 20
7114.3377439047
 30
0.0
 11
6267.9222289142
 21
7121.3377439047
 31
0.0
  0
ARC
  5
30B
330
1F
100
AcDbEntity
  8
0
  6
SLD-Plná
 62
     7
370
    25
100
AcDbCircle
 10
6240.9222289142
 20
7121.3377439047
 30
0.0
 40
1.0
100
AcDbArc
 50
90.0
 51
180.0
  0
LINE
  5
30C
330
1F
100
AcDbEntity
  8
0
  6
SLD-Plná
 62
     7
370
    25
100
AcDbLine
 10
6240.9222289142
 20
7121.3377439047
 30
0.0
 11
6240.9222289142
 21
7122.3377439047
 31
0.0
  0
LINE
  5
30D
330
1F
100
AcDbEntity
  8
0
  6
SLD-Plná
 62
     7
370
    25
100
AcDbLine
 10
6240.9222289142
 20
7121.3377439047
 30
0.0
 11
6239.9222289142
 21
7121.3377439047
 31
0.0
  0
LINE
  5
30E
330
1F
100
AcDbEntity
  8
0
  6
SLD-Plná
 62
     7
370
    25
100
AcDbLine
 10
6240.9222289142
 20
7122.3377439047
 30
0.0
 11
6267.9222289142
 21
7122.3377439047
 31
0.0
  0
LINE
  5
30F
330
1F
100
AcDbEntity
  8
0
  6
SLD-Plná
 62
     7
370
    25
100
AcDbLine
 10
6267.9222289142
 20
7122.3377439047
 30
0.0
 11
6267.9222289142
 21
7121.3377439047
 31
0.0
  0
LINE
  5
310
330
1F
100
AcDbEntity
  8
0
  6
SLD-Plná
 62
     7
370
    25
100
AcDbLine
 10
6240.9222289142
 20
7114.3377439047
 30
0.0
 11
6239.9222289142
 21
7114.3377439047
 31
0.0
  0
LINE
  5
311
330
1F
100
AcDbEntity
  8
0
  6
SLD-Plná
 62
     7
370
    25
100
AcDbLine
 10
6239.9222289142
 20
7114.3377439047
 30
0.0
 11
6239.9222289142
 21
7121.3377439047
 31
0.0
  0
LINE
  5
312
330
1F
100
AcDbEntity
  8
0
  6
SLD-Plná
 62
     7
370
    25
100
AcDbLine
 10
6268.9222289142
 20
7121.3377439047
 30
0.0
 11
6267.9222289142
 21
7121.3377439047
 31
0.0
  0
LINE
  5
313
330
1F
100
AcDbEntity
  8
0
  6
SLD-Plná
 62
     7
370
    25
100
AcDbLine
 10
6268.9222289142
 20
7121.3377439047
 30
0.0
 11
6268.9222289142
 21
7114.3377439047
 31
0.0
  0
LINE
  5
314
330
1F
100
AcDbEntity
  8
0
  6
SLD-Plná
 62
     7
370
    25
100
AcDbLine
 10
6267.9222289142
 20
7114.3377439047
 30
0.0
 11
6268.9222289142
 21
7114.3377439047
 31
0.0
  0
ARC
  5
315
330
1F
100
AcDbEntity
  8
0
  6
SLD-Plná
 62
     7
370
    25
100
AcDbCircle
 10
6267.9222289142
 20
7121.3377439047
 30
0.0
 40
1.000000000000909
100
AcDbArc
 50
0.0
 51
90.0
  0
ARC
  5
316
330
1F
100
AcDbEntity
  8
0
  6
SLD-Plná
 62
     7
370
    25
100
AcDbCircle
 10
6240.9222289142
 20
7114.3377439047
 30
0.0
 40
1.0
100
AcDbArc
 50
180.0
 51
270.0
  0
LINE
  5
317
330
1F
100
AcDbEntity
  8
0
  6
SLD-Plná
 62
     7
370
    25
100
AcDbLine
 10
6240.9222289142
 20
7113.3377439047
 30
0.0
 11
6240.9222289142
 21
7114.3377439047
 31
0.0
  0
LINE
  5
318
330
1F
100
AcDbEntity
  8
0
  6
SLD-Plná
 62
     7
370
    25
100
AcDbLine
 10
6267.9222289142
 20
7113.3377439047
 30
0.0
 11
6267.9222289142
 21
7114.3377439047
 31
0.0
  0
LINE
  5
319
330
1F
100
AcDbEntity
  8
0
  6
SLD-Plná
 62
     7
370
    25
100
AcDbLine
 10
6267.9222289142
 20
7113.3377439047
 30
0.0
 11
6240.9222289142
 21
7113.3377439047
 31
0.0
  0
ARC
  5
31A
330
1F
100
AcDbEntity
  8
0
  6
SLD-Plná
 62
     7
370
    25
100
AcDbCircle
 10
6267.9222289142
 20
7114.3377439047
 30
0.0
 40
1.000000000000909
100
AcDbArc
 50
270.0
 51
0.0
  0
ARC
  5
31B
330
1F
100
AcDbEntity
  8
0
  6
SLD-Plná
 62
     7
370
    25
100
AcDbCircle
 10
6251.9779570042
 20
7112.3377439047
 30
0.0
 40
1.000000000000812
100
AcDbArc
 50
45.0
 51
90.0
  0
ELLIPSE
  5
31C
330
1F
100
AcDbEntity
  8
0
  6
SLD-Plná
 62
     7
370
    25
100
AcDbEllipse
 10
6251.9779570042
 20
7112.3377439047
 30
0.0
 11
2.0
 21
0.0
 31
0.0
210
0.0
220
0.0
230
1.0
 40
0.5
 41
0.785398163397903
 42
1.570796326794897
  0
ARC
  5
31D
330
1F
100
AcDbEntity
  8
0
  6
SLD-Plná
 62
     7
370
    25
100
AcDbCircle
 10
6253.0386171759
 20
7113.5524702295
 30
0.0
 40
0.6186094091758131
100
AcDbArc
 50
235.1430638682
 51
304.8569361319
  0
LINE
  5
31E
330
1F
100
AcDbEntity
  8
0
  6
SLD-Plná
 62
     7
370
    25
100
AcDbLine
 10
6267.9222289142
 20
7113.0448506858
 30
0.0
 11
6267.9222289142
 21
7113.3377439047
 31
0.0
  0
LINE
  5
31F
330
1F
100
AcDbEntity
  8
0
  6
SLD-Plná
 62
     7
370
    25
100
AcDbLine
 10
6267.9222289142
 20
7113.0448506858
 30
0.0
 11
6253.3921705665
 21
7113.0448506858
 31
0.0
  0
ARC
  5
320
330
1F
100
AcDbEntity
  8
0
  6
SLD-Plná
 62
     7
370
    25
100
AcDbCircle
 10
6268.0472289142
 20
7113.9287341623
 30
0.0
 40
0.8926785535693549
100
AcDbArc
 50
261.9505330245
 51
348.578246341
  0
LINE
  5
321
330
1F
100
AcDbEntity
  8
0
  6
SLD-Plná
 62
     7
370
    25
100
AcDbLine
 10
6268.9222289142
 20
7114.3377439047
 30
0.0
 11
6268.9222289142
 21
7113.751957467
 31
0.0
  0
LINE
  5
322
330
1F
100
AcDbEntity
  8
0
  6
SLD-Plná
 62
     7
370
    25
100
AcDbLine
 10
6267.9222289142
 20
7112.6306371235
 30
0.0
 11
6267.9222289142
 21
7113.0448506858
 31
0.0
  0
ARC
  5
323
330
1F
100
AcDbEntity
  8
0
  6
SLD-Plná
 62
     7
370
    25
100
AcDbCircle
 10
6260.9222289142
 20
7112.6306371235
 30
0.0
 40
6.999999999999825
100
AcDbArc
 50
186.3793702084
 51
0.0
  0
ARC
  5
324
330
1F
100
AcDbEntity
  8
0
  6
SLD-Plná
 62
     7
370
    25
100
AcDbCircle
 10
6251.9779570042
 20
7111.6306371235
 30
0.0
 40
2.000000000000782
100
AcDbArc
 50
6.3793702085
 51
45.0
  0
ARC
  5
325
330
1F
100
AcDbEntity
  8
0
  6
SLD-Plná
 62
     7
370
    25
100
AcDbCircle
 10
6253.7992454356
 20
7112.7020852018
 30
0.0
 40
0.8653608542900418
100
AcDbArc
 50
197.015451094
 51
281.0815519204
  0
ARC
  5
326
330
1F
100
AcDbEntity
  8
0
  6
SLD-Plná
 62
     7
370
    25
100
AcDbCircle
 10
6251.9779570042
 20
7112.3377439047
 30
0.0
 40
1.000000000000812
100
AcDbArc
 50
6.3793702085
 51
45.0
  0
ARC
  5
327
330
1F
100
AcDbEntity
  8
0
  6
SLD-Plná
 62
     7
370
    25
100
AcDbCircle
 10
6268.0472289142
 20
7113.5145206
 30
0.0
 40
0.892678553571167
100
AcDbArc
 50
261.9505330246
 51
348.5782463409
  0
LINE
  5
328
330
1F
100
AcDbEntity
  8
0
  6
SLD-Plná
 62
     7
370
    25
100
AcDbLine
 10
6268.9222289142
 20
7113.751957467
 30
0.0
 11
6268.9222289142
 21
7113.3377439047
 31
0.0
  0
ARC
  5
329
330
1F
100
AcDbEntity
  8
0
  6
SLD-Plná
 62
     7
370
    25
100
AcDbCircle
 10
6260.9222289142
 20
7113.3377439047
 30
0.0
 40
8.000000000000215
100
AcDbArc
 50
186.3793702084
 51
0.0
  0
LINE
  5
32A
330
1F
100
AcDbEntity
  8
0
  6
SLD-Plná
 62
     8
370
    25
100
AcDbLine
 10
6242.6722289142
 20
7112.8377439047
 30
0.0
 11
6243.1722289142
 21
7112.8377439047
 31
0.0
  0
LINE
  5
32B
330
1F
100
AcDbEntity
  8
0
  6
SLD-Plná
 62
     8
370
    25
100
AcDbLine
 10
6248.1722289142
 20
7112.8377439047
 30
0.0
 11
6248.6722289142
 21
7112.8377439047
 31
0.0
  0
ENDSEC
  0
SECTION
  2
OBJECTS
  0
DICTIONARY
  5
C
330
0
100
AcDbDictionary
281
     1
  3
ACAD_GROUP
350
D
  3
ACAD_LAYOUT
350
1A
  3
ACAD_MLINESTYLE
350
17
  3
ACAD_PLOTSETTINGS
350
19
  3
ACAD_PLOTSTYLENAME
350
E
  3
ACAD_SCALELIST
350
47
  3
DWGPROPS
350
32C
  0
DICTIONARY
  5
D
102
{ACAD_REACTORS
330
C
102
}
330
C
100
AcDbDictionary
281
     1
  0
DICTIONARY
  5
1A
102
{ACAD_REACTORS
330
C
102
}
330
C
100
AcDbDictionary
281
     1
  3
Layout1
350
1E
  3
Layout2
350
26
  3
Model
350
22
  0
DICTIONARY
  5
17
102
{ACAD_REACTORS
330
C
102
}
330
C
100
AcDbDictionary
281
     1
  3
Standard
350
18
  0
DICTIONARY
  5
19
102
{ACAD_REACTORS
330
C
102
}
330
C
100
AcDbDictionary
281
     1
  0
ACDBDICTIONARYWDFLT
  5
E
102
{ACAD_REACTORS
330
C
102
}
330
C
100
AcDbDictionary
281
     1
  3
Normal
350
F
100
AcDbDictionaryWithDefault
340
F
  0
DICTIONARY
  5
47
102
{ACAD_REACTORS
330
C
102
}
330
C
100
AcDbDictionary
281
     1
  3
A0
350
48
  3
A1
350
49
  3
A2
350
4A
  3
A3
350
4B
  3
A4
350
4C
  3
A5
350
4D
  3
A6
350
4E
  3
A7
350
4F
  3
A8
350
50
  3
A9
350
51
  3
B0
350
52
  3
B1
350
53
  3
B2
350
54
  3
B3
350
55
  3
B4
350
56
  3
B5
350
57
  3
B6
350
58
  3
B7
350
59
  3
B8
350
5A
  3
B9
350
5B
  3
C0
350
5C
  3
C1
350
5D
  3
C2
350
5E
  3
C3
350
5F
  3
C4
350
60
  3
C5
350
61
  3
C6
350
62
  3
C7
350
63
  3
C8
350
64
  3
C9
350
65
  3
D0
350
66
  3
D1
350
67
  3
D2
350
68
  0
XRECORD
  5
32C
102
{ACAD_REACTORS
330
C
102
}
330
C
100
AcDbXrecord
280
     1
  1
DWGPROPS COOKIE
  2

  3

  4

  6

  7

  8
radek.stransky
  9

300
=
301
=
302
=
303
=
304
=
305
=
306
=
307
=
308
=
309
=
 40
0.0
 41
2460760.301755752
 42
2460760.301757014
  1

 90
        0
  0
LAYOUT
  5
1E
102
{ACAD_REACTORS
330
1A
102
}
330
1A
100
AcDbPlotSettings
  1

  2
none_device
  4

  6

 40
0.0
 41
0.0
 42
0.0
 43
0.0
 44
0.0
 45
0.0
 46
0.0
 47
0.0
 48
0.0
 49
0.0
140
0.0
141
0.0
142
1.0
143
1.0
 70
   688
 72
     1
 73
     0
 74
     5
  7

 75
    16
147
1.0
148
0.0
149
0.0
100
AcDbLayout
  1
Layout1
 70
     1
 71
     1
 10
0.0
 20
0.0
 11
420.0
 21
297.0
 12
0.0
 22
0.0
 32
0.0
 14
1.0000000000E+20
 24
1.0000000000E+20
 34
1.0000000000E+20
 15
-1.0000000000E+20
 25
-1.0000000000E+20
 35
-1.0000000000E+20
146
0.0
 13
0.0
 23
0.0
 33
0.0
 16
1.0
 26
0.0
 36
0.0
 17
0.0
 27
1.0
 37
0.0
 76
     0
330
1B
  0
LAYOUT
  5
26
102
{ACAD_REACTORS
330
1A
102
}
330
1A
100
AcDbPlotSettings
  1

  2
none_device
  4

  6

 40
0.0
 41
0.0
 42
0.0
 43
0.0
 44
0.0
 45
0.0
 46
0.0
 47
0.0
 48
0.0
 49
0.0
140
0.0
141
0.0
142
1.0
143
1.0
 70
   688
 72
     1
 73
     0
 74
     5
  7

 75
    16
147
1.0
148
0.0
149
0.0
100
AcDbLayout
  1
Layout2
 70
     1
 71
     2
 10
0.0
 20
0.0
 11
0.0
 21
0.0
 12
0.0
 22
0.0
 32
0.0
 14
0.0
 24
0.0
 34
0.0
 15
0.0
 25
0.0
 35
0.0
146
0.0
 13
0.0
 23
0.0
 33
0.0
 16
1.0
 26
0.0
 36
0.0
 17
0.0
 27
1.0
 37
0.0
 76
     0
330
23
  0
LAYOUT
  5
22
102
{ACAD_REACTORS
330
1A
102
}
330
1A
100
AcDbPlotSettings
  1

  2
none_device
  4
Letter_(8.50_x_11.00_Inches)
  6

 40
6.35
 41
6.35
 42
6.35000508
 43
6.35000508
 44
215.9
 45
279.4
 46
0.0
 47
0.0
 48
0.0
 49
0.0
140
0.0
141
0.0
142
1.0
143
1.0
 70
  1712
 72
     1
 73
     0
 74
     0
  7

 75
     0
147
1.0
148
0.0
149
0.0
100
AcDbLayout
  1
Model
 70
     1
 71
     0
 10
0.0
 20
0.0
 11
20000.0
 21
10000.0
 12
0.0
 22
0.0
 32
0.0
 14
0.0
 24
0.0
 34
0.0
 15
20000.0
 25
10000.0
 35
0.0
146
0.0
 13
0.0
 23
0.0
 33
0.0
 16
1.0
 26
0.0
 36
0.0
 17
0.0
 27
1.0
 37
0.0
 76
     0
330
1F
331
29
  0
MLINESTYLE
  5
18
102
{ACAD_REACTORS
330
17
102
}
330
17
100
AcDbMlineStyle
  2
Standard
 70
     0
  3

 62
   256
 51
90.0
 52
90.0
 71
     2
 49
0.5
 62
   256
  6
BYLAYER
 49
-0.5
 62
   256
  6
BYLAYER
  0
ACDBPLACEHOLDER
  5
F
102
{ACAD_REACTORS
330
E
102
}
330
E
  0
SCALE
  5
48
102
{ACAD_REACTORS
330
47
102
}
330
47
100
AcDbScale
 70
     0
300
1:1
140
1.0
141
1.0
290
     1
  0
SCALE
  5
49
102
{ACAD_REACTORS
330
47
102
}
330
47
100
AcDbScale
 70
     0
300
1:2
140
1.0
141
2.0
290
     0
  0
SCALE
  5
4A
102
{ACAD_REACTORS
330
47
102
}
330
47
100
AcDbScale
 70
     0
300
1:4
140
1.0
141
4.0
290
     0
  0
SCALE
  5
4B
102
{ACAD_REACTORS
330
47
102
}
330
47
100
AcDbScale
 70
     0
300
1:5
140
1.0
141
5.0
290
     0
  0
SCALE
  5
4C
102
{ACAD_REACTORS
330
47
102
}
330
47
100
AcDbScale
 70
     0
300
1:8
140
1.0
141
8.0
290
     0
  0
SCALE
  5
4D
102
{ACAD_REACTORS
330
47
102
}
330
47
100
AcDbScale
 70
     0
300
1:10
140
1.0
141
10.0
290
     0
  0
SCALE
  5
4E
102
{ACAD_REACTORS
330
47
102
}
330
47
100
AcDbScale
 70
     0
300
1:16
140
1.0
141
16.0
290
     0
  0
SCALE
  5
4F
102
{ACAD_REACTORS
330
47
102
}
330
47
100
AcDbScale
 70
     0
300
1:20
140
1.0
141
20.0
290
     0
  0
SCALE
  5
50
102
{ACAD_REACTORS
330
47
102
}
330
47
100
AcDbScale
 70
     0
300
1:30
140
1.0
141
30.0
290
     0
  0
SCALE
  5
51
102
{ACAD_REACTORS
330
47
102
}
330
47
100
AcDbScale
 70
     0
300
1:40
140
1.0
141
40.0
290
     0
  0
SCALE
  5
52
102
{ACAD_REACTORS
330
47
102
}
330
47
100
AcDbScale
 70
     0
300
1:50
140
1.0
141
50.0
290
     0
  0
SCALE
  5
53
102
{ACAD_REACTORS
330
47
102
}
330
47
100
AcDbScale
 70
     0
300
1:100
140
1.0
141
100.0
290
     0
  0
SCALE
  5
54
102
{ACAD_REACTORS
330
47
102
}
330
47
100
AcDbScale
 70
     0
300
2:1
140
2.0
141
1.0
290
     0
  0
SCALE
  5
55
102
{ACAD_REACTORS
330
47
102
}
330
47
100
AcDbScale
 70
     0
300
4:1
140
4.0
141
1.0
290
     0
  0
SCALE
  5
56
102
{ACAD_REACTORS
330
47
102
}
330
47
100
AcDbScale
 70
     0
300
8:1
140
8.0
141
1.0
290
     0
  0
SCALE
  5
57
102
{ACAD_REACTORS
330
47
102
}
330
47
100
AcDbScale
 70
     0
300
10:1
140
10.0
141
1.0
290
     0
  0
SCALE
  5
58
102
{ACAD_REACTORS
330
47
102
}
330
47
100
AcDbScale
 70
     0
300
100:1
140
100.0
141
1.0
290
     0
  0
SCALE
  5
59
102
{ACAD_REACTORS
330
47
102
}
330
47
100
AcDbScale
 70
     0
300
1/128" = 1'-0"
140
0.0078125
141
12.0
290
     0
  0
SCALE
  5
5A
102
{ACAD_REACTORS
330
47
102
}
330
47
100
AcDbScale
 70
     0
300
1/64" = 1'-0"
140
0.015625
141
12.0
290
     0
  0
SCALE
  5
5B
102
{ACAD_REACTORS
330
47
102
}
330
47
100
AcDbScale
 70
     0
300
1/32" = 1'-0"
140
0.03125
141
12.0
290
     0
  0
SCALE
  5
5C
102
{ACAD_REACTORS
330
47
102
}
330
47
100
AcDbScale
 70
     0
300
1/16" = 1'-0"
140
0.0625
141
12.0
290
     0
  0
SCALE
  5
5D
102
{ACAD_REACTORS
330
47
102
}
330
47
100
AcDbScale
 70
     0
300
3/32" = 1'-0"
140
0.09375
141
12.0
290
     0
  0
SCALE
  5
5E
102
{ACAD_REACTORS
330
47
102
}
330
47
100
AcDbScale
 70
     0
300
1/8" = 1'-0"
140
0.125
141
12.0
290
     0
  0
SCALE
  5
5F
102
{ACAD_REACTORS
330
47
102
}
330
47
100
AcDbScale
 70
     0
300
3/16" = 1'-0"
140
0.1875
141
12.0
290
     0
  0
SCALE
  5
60
102
{ACAD_REACTORS
330
47
102
}
330
47
100
AcDbScale
 70
     0
300
1/4" = 1'-0"
140
0.25
141
12.0
290
     0
  0
SCALE
  5
61
102
{ACAD_REACTORS
330
47
102
}
330
47
100
AcDbScale
 70
     0
300
3/8" = 1'-0"
140
0.375
141
12.0
290
     0
  0
SCALE
  5
62
102
{ACAD_REACTORS
330
47
102
}
330
47
100
AcDbScale
 70
     0
300
1/2" = 1'-0"
140
0.5
141
12.0
290
     0
  0
SCALE
  5
63
102
{ACAD_REACTORS
330
47
102
}
330
47
100
AcDbScale
 70
     0
300
3/4" = 1'-0"
140
0.75
141
12.0
290
     0
  0
SCALE
  5
64
102
{ACAD_REACTORS
330
47
102
}
330
47
100
AcDbScale
 70
     0
300
1" = 1'-0"
140
1.0
141
12.0
290
     0
  0
SCALE
  5
65
102
{ACAD_REACTORS
330
47
102
}
330
47
100
AcDbScale
 70
     0
300
1-1/2" = 1'-0"
140
1.5
141
12.0
290
     0
  0
SCALE
  5
66
102
{ACAD_REACTORS
330
47
102
}
330
47
100
AcDbScale
 70
     0
300
3" = 1'-0"
140
3.0
141
12.0
290
     0
  0
SCALE
  5
67
102
{ACAD_REACTORS
330
47
102
}
330
47
100
AcDbScale
 70
     0
300
6" = 1'-0"
140
6.0
141
12.0
290
     0
  0
SCALE
  5
68
102
{ACAD_REACTORS
330
47
102
}
330
47
100
AcDbScale
 70
     0
300
1'-0" = 1'-0"
140
12.0
141
12.0
290
     0
  0
ENDSEC
  0
EOF
