  0
SECTION
  2
HEADER
  9
$ACADVER
  1
AC1015
  9
$ACADMAINTVER
 70
     6
  9
$DWGCODEPAGE
  3
ANSI_1250
  9
$INSBASE
 10
0.0
 20
0.0
 30
0.0
  9
$EXTMIN
 10
0.0
 20
0.0
 30
0.0
  9
$EXTMAX
 10
20000.0
 20
10000.0
 30
0.0
  9
$LIMMIN
 10
0.0
 20
0.0
  9
$LIMMAX
 10
20000.0
 20
10000.0
  9
$ORTHOMODE
 70
     0
  9
$REGENMODE
 70
     1
  9
$FILLMODE
 70
     1
  9
$QTEXTMODE
 70
     0
  9
$MIRRTEXT
 70
     1
  9
$LTSCALE
 40
1.0
  9
$ATTMODE
 70
     1
  9
$TEXTSIZE
 40
2.0
  9
$TRACEWID
 40
1.0
  9
$TEXTSTYLE
  7
STANDARD
  9
$CLAYER
  8
0
  9
$CELTYPE
  6
ByLayer
  9
$CECOLOR
 62
   256
  9
$CELTSCALE
 40
1.0
  9
$DISPSILH
 70
     0
  9
$DIMSCALE
 40
1.0
  9
$DIMASZ
 40
2.0
  9
$DIMEXO
 40
1.0
  9
$DIMDLI
 40
3.75
  9
$DIMRND
 40
0.0
  9
$DIMDLE
 40
0.0
  9
$DIMEXE
 40
1.0
  9
$DIMTP
 40
0.0
  9
$DIMTM
 40
0.0
  9
$DIMTXT
 40
2.0
  9
$DIMCEN
 40
2.5
  9
$DIMTSZ
 40
0.0
  9
$DIMTOL
 70
     0
  9
$DIMLIM
 70
     0
  9
$DIMTIH
 70
     1
  9
$DIMTOH
 70
     1
  9
$DIMSE1
 70
     0
  9
$DIMSE2
 70
     0
  9
$DIMTAD
 70
     1
  9
$DIMZIN
 70
     0
  9
$DIMBLK
  1

  9
$DIMASO
 70
     1
  9
$DIMSHO
 70
     1
  9
$DIMPOST
  1

  9
$DIMAPOST
  1

  9
$DIMALT
 70
     0
  9
$DIMALTD
 70
     3
  9
$DIMALTF
 40
0.0393700787
  9
$DIMLFAC
 40
1.0
  9
$DIMTOFL
 70
     1
  9
$DIMTVP
 40
0.0
  9
$DIMTIX
 70
     0
  9
$DIMSOXD
 70
     0
  9
$DIMSAH
 70
     0
  9
$DIMBLK1
  1

  9
$DIMBLK2
  1

  9
$DIMSTYLE
  2
ISO-25
  9
$DIMCLRD
 70
     0
  9
$DIMCLRE
 70
     0
  9
$DIMCLRT
 70
     0
  9
$DIMTFAC
 40
1.0
  9
$DIMGAP
 40
1.524
  9
$DIMJUST
 70
     0
  9
$DIMSD1
 70
     0
  9
$DIMSD2
 70
     0
  9
$DIMTOLJ
 70
     0
  9
$DIMTZIN
 70
     0
  9
$DIMALTZ
 70
     0
  9
$DIMALTTZ
 70
     0
  9
$DIMUPT
 70
     0
  9
$DIMDEC
 70
     2
  9
$DIMTDEC
 70
     0
  9
$DIMALTU
 70
     2
  9
$DIMALTTD
 70
     3
  9
$DIMTXSTY
  7
STANDARD
  9
$DIMAUNIT
 70
     0
  9
$DIMADEC
 70
     2
  9
$DIMALTRND
 40
0.0
  9
$DIMAZIN
 70
     0
  9
$DIMDSEP
 70
    44
  9
$DIMATFIT
 70
     3
  9
$DIMFRAC
 70
     0
  9
$DIMLDRBLK
  1

  9
$DIMLUNIT
 70
     2
  9
$DIMLWD
 70
    -2
  9
$DIMLWE
 70
    -2
  9
$DIMTMOVE
 70
     0
  9
$LUNITS
 70
     2
  9
$LUPREC
 70
     3
  9
$SKETCHINC
 40
1.0
  9
$FILLETRAD
 40
10.0
  9
$AUNITS
 70
     0
  9
$AUPREC
 70
     2
  9
$MENU
  1
.
  9
$ELEVATION
 40
0.0
  9
$PELEVATION
 40
0.0
  9
$THICKNESS
 40
0.0
  9
$LIMCHECK
 70
     0
  9
$CHAMFERA
 40
0.0
  9
$CHAMFERB
 40
0.0
  9
$CHAMFERC
 40
0.0
  9
$CHAMFERD
 40
0.0
  9
$SKPOLY
 70
     0
  9
$TDCREATE
 40
2460763.334264352
  9
$TDUCREATE
 40
2460763.292597685
  9
$TDUPDATE
 40
2460763.334264919
  9
$TDUUPDATE
 40
2460763.292598252
  9
$TDINDWG
 40
0.0000000116
  9
$TDUSRTIMER
 40
0.0000000116
  9
$USRTIMER
 70
     1
  9
$ANGBASE
 50
0.0
  9
$ANGDIR
 70
     0
  9
$PDMODE
 70
     0
  9
$PDSIZE
 40
-1.0
  9
$PLINEWID
 40
0.0
  9
$SPLFRAME
 70
     0
  9
$SPLINETYPE
 70
     6
  9
$SPLINESEGS
 70
     8
  9
$HANDSEED
  5
16E
  9
$SURFTAB1
 70
     6
  9
$SURFTAB2
 70
     6
  9
$SURFTYPE
 70
     6
  9
$SURFU
 70
     6
  9
$SURFV
 70
     6
  9
$UCSBASE
  2

  9
$UCSNAME
  2

  9
$UCSORG
 10
0.0
 20
0.0
 30
0.0
  9
$UCSXDIR
 10
1.0
 20
0.0
 30
0.0
  9
$UCSYDIR
 10
0.0
 20
1.0
 30
0.0
  9
$UCSORTHOREF
  2

  9
$UCSORTHOVIEW
 70
     0
  9
$UCSORGTOP
 10
0.0
 20
0.0
 30
0.0
  9
$UCSORGBOTTOM
 10
0.0
 20
0.0
 30
0.0
  9
$UCSORGLEFT
 10
0.0
 20
0.0
 30
0.0
  9
$UCSORGRIGHT
 10
0.0
 20
0.0
 30
0.0
  9
$UCSORGFRONT
 10
0.0
 20
0.0
 30
0.0
  9
$UCSORGBACK
 10
0.0
 20
0.0
 30
0.0
  9
$PUCSBASE
  2

  9
$PUCSNAME
  2

  9
$PUCSORG
 10
0.0
 20
0.0
 30
0.0
  9
$PUCSXDIR
 10
1.0
 20
0.0
 30
0.0
  9
$PUCSYDIR
 10
0.0
 20
1.0
 30
0.0
  9
$PUCSORTHOREF
  2

  9
$PUCSORTHOVIEW
 70
     0
  9
$PUCSORGTOP
 10
0.0
 20
0.0
 30
0.0
  9
$PUCSORGBOTTOM
 10
0.0
 20
0.0
 30
0.0
  9
$PUCSORGLEFT
 10
0.0
 20
0.0
 30
0.0
  9
$PUCSORGRIGHT
 10
0.0
 20
0.0
 30
0.0
  9
$PUCSORGFRONT
 10
0.0
 20
0.0
 30
0.0
  9
$PUCSORGBACK
 10
0.0
 20
0.0
 30
0.0
  9
$USERI1
 70
     0
  9
$USERI2
 70
     0
  9
$USERI3
 70
     0
  9
$USERI4
 70
     0
  9
$USERI5
 70
     0
  9
$USERR1
 40
0.0
  9
$USERR2
 40
0.0
  9
$USERR3
 40
0.0
  9
$USERR4
 40
0.0
  9
$USERR5
 40
0.0
  9
$WORLDVIEW
 70
     1
  9
$SHADEDGE
 70
     3
  9
$SHADEDIF
 70
    70
  9
$TILEMODE
 70
     1
  9
$MAXACTVP
 70
    64
  9
$PINSBASE
 10
0.0
 20
0.0
 30
0.0
  9
$PLIMCHECK
 70
     0
  9
$PEXTMIN
 10
1.0000000000E+20
 20
1.0000000000E+20
 30
1.0000000000E+20
  9
$PEXTMAX
 10
-1.0000000000E+20
 20
-1.0000000000E+20
 30
-1.0000000000E+20
  9
$PLIMMIN
 10
0.0
 20
0.0
  9
$PLIMMAX
 10
420.0
 20
297.0
  9
$UNITMODE
 70
     0
  9
$VISRETAIN
 70
     1
  9
$PLINEGEN
 70
     0
  9
$PSLTSCALE
 70
     1
  9
$TREEDEPTH
 70
  3020
  9
$CMLSTYLE
  2
Standard
  9
$CMLJUST
 70
     0
  9
$CMLSCALE
 40
20.0
  9
$PROXYGRAPHICS
 70
     1
  9
$MEASUREMENT
 70
     1
  9
$CELWEIGHT
370
    -1
  9
$ENDCAPS
280
     0
  9
$JOINSTYLE
280
     0
  9
$LWDISPLAY
290
     1
  9
$INSUNITS
 70
     4
  9
$HYPERLINKBASE
  1

  9
$STYLESHEET
  1

  9
$XEDIT
290
     1
  9
$CEPSNTYPE
380
     0
  9
$PSTYLEMODE
290
     1
  9
$FINGERPRINTGUID
  2
{f260e851-5990-417a-8069-1add445c9397}
  9
$VERSIONGUID
  2
{FAEB1C32-E019-11D5-929B-00C0DF256EC4}
  9
$EXTNAMES
290
     1
  9
$PSVPSCALE
 40
0.0
  9
$OLESTARTUP
290
     0
  0
ENDSEC
  0
SECTION
  2
CLASSES
  0
CLASS
  1
ACDBDICTIONARYWDFLT
  2
AcDbDictionaryWithDefault
  3
ObjectDBX Classes
 90
        0
280
     0
281
     0
  0
CLASS
  1
VISUALSTYLE
  2
AcDbVisualStyle
  3
ObjectDBX Classes
 90
     4095
280
     0
281
     0
  0
CLASS
  1
MATERIAL
  2
AcDbMaterial
  3
ObjectDBX Classes
 90
     1153
280
     0
281
     0
  0
CLASS
  1
SCALE
  2
AcDbScale
  3
ObjectDBX Classes
 90
     1153
280
     0
281
     0
  0
CLASS
  1
TABLESTYLE
  2
AcDbTableStyle
  3
ObjectDBX Classes
 90
     4095
280
     0
281
     0
  0
CLASS
  1
MLEADERSTYLE
  2
AcDbMLeaderStyle
  3
ACDB_MLEADERSTYLE_CLASS
 90
     4095
280
     0
281
     0
  0
CLASS
  1
SUN
  2
AcDbSun
  3
SCENEOE
 90
     1153
280
     0
281
     0
  0
CLASS
  1
ACDBPLACEHOLDER
  2
AcDbPlaceHolder
  3
ObjectDBX Classes
 90
        0
280
     0
281
     0
  0
CLASS
  1
LAYOUT
  2
AcDbLayout
  3
ObjectDBX Classes
 90
        0
280
     0
281
     0
  0
ENDSEC
  0
SECTION
  2
TABLES
  0
TABLE
  2
VPORT
  5
8
330
0
100
AcDbSymbolTable
 70
     1
  0
VPORT
  5
29
330
8
100
AcDbSymbolTableRecord
100
AcDbViewportTableRecord
  2
*Active
 70
     0
 10
0.0
 20
0.0
 11
1.0
 21
1.0
 12
10000.0
 22
5000.0
 13
0.0
 23
0.0
 14
10.0
 24
10.0
 15
10.0
 25
10.0
 16
0.0
 26
0.0
 36
1.0
 17
0.0
 27
0.0
 37
0.0
 40
10000.0
 41
2.0
 42
50.0
 43
0.0
 44
0.0
 50
0.0
 51
0.0
 71
     0
 72
  2000
 73
     1
 74
     3
 75
     0
 76
     0
 77
     0
 78
     0
281
     0
 65
     1
110
0.0
120
0.0
130
0.0
111
1.0
121
0.0
131
0.0
112
0.0
122
1.0
132
0.0
 79
     0
146
0.0
  0
ENDTAB
  0
TABLE
  2
LTYPE
  5
5
330
0
100
AcDbSymbolTable
 70
    10
  0
LTYPE
  5
14
330
5
100
AcDbSymbolTableRecord
100
AcDbLinetypeTableRecord
  2
ByBlock
 70
     0
  3

 72
    65
 73
     0
 40
0.0
  0
LTYPE
  5
15
330
5
100
AcDbSymbolTableRecord
100
AcDbLinetypeTableRecord
  2
ByLayer
 70
     0
  3

 72
    65
 73
     0
 40
0.0
  0
LTYPE
  5
16
330
5
100
AcDbSymbolTableRecord
100
AcDbLinetypeTableRecord
  2
Continuous
 70
     0
  3
Solid line
 72
    65
 73
     0
 40
0.0
  0
LTYPE
  5
6E
330
5
100
AcDbSymbolTableRecord
100
AcDbLinetypeTableRecord
  2
SLD-Plná
 70
     0
  3
SolidWorks Line Style
 72
    65
 73
     0
 40
0.0
  0
LTYPE
  5
6F
330
5
100
AcDbSymbolTableRecord
100
AcDbLinetypeTableRecord
  2
SLD-Čárkovaná
 70
     0
  3
SolidWorks Line Style
 72
    65
 73
     2
 40
1.905
 49
1.27
 74
     0
 49
-0.635
 74
     0
  0
LTYPE
  5
70
330
5
100
AcDbSymbolTableRecord
100
AcDbLinetypeTableRecord
  2
SLD-Dvojitě-čerchovaná
 70
     0
  3
SolidWorks Line Style
 72
    65
 73
     6
 40
12.7
 49
6.35
 74
     0
 49
-1.27
 74
     0
 49
1.27
 74
     0
 49
-1.27
 74
     0
 49
1.27
 74
     0
 49
-1.27
 74
     0
  0
LTYPE
  5
71
330
5
100
AcDbSymbolTableRecord
100
AcDbLinetypeTableRecord
  2
SLD-Čerchovaná
 70
     0
  3
SolidWorks Line Style
 72
    65
 73
     4
 40
10.16
 49
6.35
 74
     0
 49
-1.27
 74
     0
 49
1.27
 74
     0
 49
-1.27
 74
     0
  0
LTYPE
  5
72
330
5
100
AcDbSymbolTableRecord
100
AcDbLinetypeTableRecord
  2
SLD-Osa
 70
     0
  3
SolidWorks Line Style
 72
    65
 73
     4
 40
19.05
 49
15.24
 74
     0
 49
-1.27
 74
     0
 49
1.27
 74
     0
 49
-1.27
 74
     0
  0
LTYPE
  5
73
330
5
100
AcDbSymbolTableRecord
100
AcDbLinetypeTableRecord
  2
SLD-Tečkovaná
 70
     0
  3
SolidWorks Line Style
 72
    65
 73
     2
 40
0.635
 49
0.0
 74
     0
 49
-0.635
 74
     0
  0
LTYPE
  5
74
330
5
100
AcDbSymbolTableRecord
100
AcDbLinetypeTableRecord
  2
SLD-Hrubá-tenká-čerchovaná
 70
     0
  3
SolidWorks Line Style
 72
    65
 73
     4
 40
10.16
 49
6.35
 74
     0
 49
-1.27
 74
     0
 49
1.27
 74
     0
 49
-1.27
 74
     0
  0
LTYPE
  5
75
330
5
100
AcDbSymbolTableRecord
100
AcDbLinetypeTableRecord
  2
SLD-Řez-1
 70
     0
  3
SolidWorks Line Style
 72
    65
 73
     4
 40
8.128
 49
5.08
 74
     0
 49
-1.016
 74
     0
 49
1.016
 74
     0
 49
-1.016
 74
     0
  0
LTYPE
  5
76
330
5
100
AcDbSymbolTableRecord
100
AcDbLinetypeTableRecord
  2
SLD-Řez-2
 70
     0
  3
SolidWorks Line Style
 72
    65
 73
     2
 40
5080.0
 49
0.0
 74
     0
 49
-5080.0
 74
     0
  0
ENDTAB
  0
TABLE
  2
LAYER
  5
2
330
0
100
AcDbSymbolTable
 70
    13
  0
LAYER
  5
10
330
2
100
AcDbSymbolTableRecord
100
AcDbLayerTableRecord
  2
0
 70
     0
 62
     7
  6
Continuous
370
    -3
390
F
  0
LAYER
  5
77
330
2
100
AcDbSymbolTableRecord
100
AcDbLayerTableRecord
  2
FORMAT
 70
     0
 62
     7
  6
SLD-Plná
370
    -3
390
F
  0
LAYER
  5
78
330
2
100
AcDbSymbolTableRecord
100
AcDbLayerTableRecord
  2
OSA
 70
     0
 62
     7
  6
SLD-Hrubá-tenká-čerchovaná
370
    -3
390
F
  0
LAYER
  5
79
330
2
100
AcDbSymbolTableRecord
100
AcDbLayerTableRecord
  2
0_35
 70
     0
 62
     7
  6
SLD-Plná
370
    35
390
F
  0
LAYER
  5
7A
330
2
100
AcDbSymbolTableRecord
100
AcDbLayerTableRecord
  2
0_5
 70
     0
 62
     7
  6
SLD-Plná
370
    50
390
F
  0
LAYER
  5
7B
330
2
100
AcDbSymbolTableRecord
100
AcDbLayerTableRecord
  2
0_25
 70
     0
 62
     7
  6
SLD-Plná
370
    25
390
F
  0
LAYER
  5
7C
330
2
100
AcDbSymbolTableRecord
100
AcDbLayerTableRecord
  2
0_18
 70
     0
 62
     7
  6
SLD-Plná
370
    -3
390
F
  0
LAYER
  5
7D
330
2
100
AcDbSymbolTableRecord
100
AcDbLayerTableRecord
  2
SLD-0
 70
     0
 62
   179
  6
SLD-Plná
370
    -3
390
F
  0
LAYER
  5
7E
330
2
100
AcDbSymbolTableRecord
100
AcDbLayerTableRecord
  2
KOTY
 70
     0
 62
     7
  6
SLD-Plná
370
    -3
390
F
  0
LAYER
  5
7F
330
2
100
AcDbSymbolTableRecord
100
AcDbLayerTableRecord
  2
SILNA
 70
     0
 62
   179
  6
SLD-Plná
370
    -3
390
F
  0
LAYER
  5
80
330
2
100
AcDbSymbolTableRecord
100
AcDbLayerTableRecord
  2
0_18_1
 70
     0
 62
   179
  6
SLD-Plná
370
    -3
390
F
  0
LAYER
  5
81
330
2
100
AcDbSymbolTableRecord
100
AcDbLayerTableRecord
  2
0_35_1
 70
     0
 62
   179
  6
SLD-Plná
370
    35
390
F
  0
LAYER
  5
82
330
2
100
AcDbSymbolTableRecord
100
AcDbLayerTableRecord
  2
0_5_1
 70
     0
 62
   179
  6
SLD-Plná
370
    50
390
F
  0
ENDTAB
  0
TABLE
  2
STYLE
  5
3
330
0
100
AcDbSymbolTable
 70
     1
  0
STYLE
  5
11
330
3
100
AcDbSymbolTableRecord
100
AcDbTextStyleTableRecord
  2
STANDARD
 70
     0
 40
0.0
 41
1.0
 50
0.0
 71
     0
 42
2.0
  3
SWISOP1.TTF
  4

1001
ACAD
1000
SWISOP1
1071
        2
  0
ENDTAB
  0
TABLE
  2
VIEW
  5
6
330
0
100
AcDbSymbolTable
 70
     0
  0
ENDTAB
  0
TABLE
  2
UCS
  5
7
330
0
100
AcDbSymbolTable
 70
     0
  0
ENDTAB
  0
TABLE
  2
APPID
  5
9
330
0
100
AcDbSymbolTable
 70
     1
  0
APPID
  5
12
330
9
100
AcDbSymbolTableRecord
100
AcDbRegAppTableRecord
  2
ACAD
 70
     0
  0
ENDTAB
  0
TABLE
  2
DIMSTYLE
  5
A
330
0
100
AcDbSymbolTable
 70
     1
100
AcDbDimStyleTable
  0
DIMSTYLE
105
27
330
A
100
AcDbSymbolTableRecord
100
AcDbDimStyleTableRecord
  2
ISO-25
 70
     0
 41
2.5
 42
0.625
 43
3.75
 44
1.25
 73
     0
 74
     0
 77
     1
 78
     8
140
2.5
141
2.5
143
0.0393700787
147
0.625
171
     3
172
     1
178
     0
271
     2
272
     2
274
     3
278
    44
283
     0
284
     8
340
11
  0
ENDTAB
  0
TABLE
  2
BLOCK_RECORD
  5
1
330
0
100
AcDbSymbolTable
 70
     1
  0
BLOCK_RECORD
  5
1F
330
1
100
AcDbSymbolTableRecord
100
AcDbBlockTableRecord
  2
*Model_Space
340
22
  0
BLOCK_RECORD
  5
1B
330
1
100
AcDbSymbolTableRecord
100
AcDbBlockTableRecord
  2
*Paper_Space
340
1E
  0
BLOCK_RECORD
  5
23
330
1
100
AcDbSymbolTableRecord
100
AcDbBlockTableRecord
  2
*Paper_Space0
340
26
  0
ENDTAB
  0
ENDSEC
  0
SECTION
  2
BLOCKS
  0
BLOCK
  5
20
330
1F
100
AcDbEntity
  8
0
100
AcDbBlockBegin
  2
*Model_Space
 70
     0
 10
0.0
 20
0.0
 30
0.0
  3
*Model_Space
  1

  0
ENDBLK
  5
21
330
1F
100
AcDbEntity
  8
0
100
AcDbBlockEnd
  0
BLOCK
  5
1C
330
1B
100
AcDbEntity
 67
     1
  8
0
100
AcDbBlockBegin
  2
*Paper_Space
 70
     0
 10
0.0
 20
0.0
 30
0.0
  3
*Paper_Space
  1

  0
ENDBLK
  5
1D
330
1B
100
AcDbEntity
 67
     1
  8
0
100
AcDbBlockEnd
  0
BLOCK
  5
24
330
23
100
AcDbEntity
  8
0
100
AcDbBlockBegin
  2
*Paper_Space0
 70
     0
 10
0.0
 20
0.0
 30
0.0
  3
*Paper_Space0
  1

  0
ENDBLK
  5
25
330
23
100
AcDbEntity
  8
0
100
AcDbBlockEnd
  0
ENDSEC
  0
SECTION
  2
ENTITIES
  0
ARC
  5
83
330
1F
100
AcDbEntity
  8
0
  6
SLD-Plná
 62
     7
370
    25
100
AcDbCircle
 10
6354.0187553361
 20
5388.6356038016
 30
0.0
 40
3.128427475666157
100
AcDbArc
 50
118.651061369
 51
153.5107870043
  0
ARC
  5
84
330
1F
100
AcDbEntity
  8
0
  6
SLD-Plná
 62
     7
370
    25
100
AcDbCircle
 10
6354.0187553361
 20
5388.6356038016
 30
0.0
 40
3.128427475666926
100
AcDbArc
 50
26.4892129957
 51
61.348938631
  0
LINE
  5
85
330
1F
100
AcDbEntity
  8
0
  6
SLD-Plná
 62
     7
370
    25
100
AcDbLine
 10
6356.8187553361
 20
5389.730974172
 30
0.0
 11
6356.8187553361
 21
5390.030974172
 31
0.0
  0
LINE
  5
86
330
1F
100
AcDbEntity
  8
0
  6
SLD-Plná
 62
     7
370
    25
100
AcDbLine
 10
6351.2187553361
 20
5390.030974172
 30
0.0
 11
6351.2187553361
 21
5389.730974172
 31
0.0
  0
LINE
  5
87
330
1F
100
AcDbEntity
  8
0
  6
SLD-Plná
 62
     7
370
    25
100
AcDbLine
 10
6196.8187553361
 20
5389.730974172
 30
0.0
 11
6196.8187553361
 21
5390.030974172
 31
0.0
  0
LINE
  5
88
330
1F
100
AcDbEntity
  8
0
  6
SLD-Plná
 62
     7
370
    25
100
AcDbLine
 10
6191.2187553361
 20
5390.030974172
 30
0.0
 11
6191.2187553361
 21
5389.730974172
 31
0.0
  0
ARC
  5
89
330
1F
100
AcDbEntity
  8
0
  6
SLD-Plná
 62
     7
370
    25
100
AcDbCircle
 10
6194.0187553361
 20
5388.6356038016
 30
0.0
 40
3.128427475666926
100
AcDbArc
 50
118.651061369
 51
153.5107870043
  0
ARC
  5
8A
330
1F
100
AcDbEntity
  8
0
  6
SLD-Plná
 62
     7
370
    25
100
AcDbCircle
 10
6194.0187553361
 20
5388.6356038016
 30
0.0
 40
3.128427475666157
100
AcDbArc
 50
26.4892129957
 51
61.348938631
  0
ARC
  5
8B
330
1F
100
AcDbEntity
  8
0
  6
SLD-Plná
 62
     7
370
    25
100
AcDbCircle
 10
6123.557032124
 20
5281.2322763047
 30
0.0
 40
2.660714285713815
100
AcDbArc
 50
105.2233230462
 51
175.2073634433
  0
ARC
  5
8C
330
1F
100
AcDbEntity
  8
0
  6
SLD-Plná
 62
     7
370
    25
100
AcDbCircle
 10
6124.6542496847
 20
5277.2003322565
 30
0.0
 40
2.660714285714247
100
AcDbArc
 50
215.2392826491
 51
285.2233230462
  0
LINE
  5
8D
330
1F
100
AcDbEntity
  8
0
  6
SLD-Plná
 62
     7
370
    25
100
AcDbLine
 10
6123.5305620594
 20
5281.6507234706
 30
0.0
 11
6123.4491859535
 21
5281.6285784975
 31
0.0
  0
LINE
  5
8E
330
1F
100
AcDbEntity
  8
0
  6
SLD-Plná
 62
     7
370
    25
100
AcDbLine
 10
6124.7620958552
 20
5276.8040300637
 30
0.0
 11
6124.8476189256
 21
5276.827303555
 31
0.0
  0
ARC
  5
8F
330
1F
100
AcDbEntity
  8
0
  6
SLD-Plná
 62
     7
370
    25
100
AcDbCircle
 10
6391.6108413674
 20
5160.4462601584
 30
0.0
 40
2.660714285715695
100
AcDbArc
 50
254.7766769538
 51
324.7607173509
  0
ARC
  5
90
330
1F
100
AcDbEntity
  8
0
  6
SLD-Plná
 62
     7
370
    25
100
AcDbCircle
 10
6392.7080589281
 20
5164.4782042067
 30
0.0
 40
2.660714285713815
100
AcDbArc
 50
4.7926365567
 51
74.7766769538
  0
LINE
  5
91
330
1F
100
AcDbEntity
  8
0
  6
SLD-Plná
 62
     7
370
    25
100
AcDbLine
 10
6391.317115583
 20
5160.1005415983
 30
0.0
 11
6391.5029951969
 21
5160.0499579656
 31
0.0
  0
LINE
  5
92
330
1F
100
AcDbEntity
  8
0
  6
SLD-Plná
 62
     7
370
    25
100
AcDbLine
 10
6392.8159050986
 20
5164.8745063994
 30
0.0
 11
6392.6341724493
 21
5164.9239615138
 31
0.0
  0
ARC
  5
93
330
1F
100
AcDbEntity
  8
0
  6
SLD-Plná
 62
     7
370
    25
100
AcDbCircle
 10
6423.3832609875
 20
5277.2003322565
 30
0.0
 40
2.66071428571499
100
AcDbArc
 50
254.7766769538
 51
324.7607173509
  0
ARC
  5
94
330
1F
100
AcDbEntity
  8
0
  6
SLD-Plná
 62
     7
370
    25
100
AcDbCircle
 10
6424.4804785482
 20
5281.2322763047
 30
0.0
 40
2.660714285713815
100
AcDbArc
 50
4.7926365567
 51
74.7766769538
  0
LINE
  5
95
330
1F
100
AcDbEntity
  8
0
  6
SLD-Plná
 62
     7
370
    25
100
AcDbLine
 10
6423.1898917466
 20
5276.827303555
 30
0.0
 11
6423.275414817
 21
5276.8040300637
 31
0.0
  0
LINE
  5
96
330
1F
100
AcDbEntity
  8
0
  6
SLD-Plná
 62
     7
370
    25
100
AcDbLine
 10
6424.5883247187
 20
5281.6285784975
 30
0.0
 11
6424.5069486128
 21
5281.6507234706
 31
0.0
  0
ARC
  5
97
330
1F
100
AcDbEntity
  8
0
  6
SLD-Plná
 62
     7
370
    25
100
AcDbCircle
 10
6444.6524013944
 20
5355.3580168841
 30
0.0
 40
2.66071428571499
100
AcDbArc
 50
254.7766769538
 51
324.7607173509
  0
ARC
  5
98
330
1F
100
AcDbEntity
  8
0
  6
SLD-Plná
 62
     7
370
    25
100
AcDbCircle
 10
6445.7496189551
 20
5359.3899609324
 30
0.0
 40
2.660714285714721
100
AcDbArc
 50
4.7926365567
 51
74.7766769538
  0
LINE
  5
99
330
1F
100
AcDbEntity
  8
0
  6
SLD-Plná
 62
     7
370
    25
100
AcDbLine
 10
6444.52621298
 20
5354.9667061872
 30
0.0
 11
6444.5445552239
 21
5354.9617146913
 31
0.0
  0
LINE
  5
9A
330
1F
100
AcDbEntity
  8
0
  6
SLD-Plná
 62
     7
370
    25
100
AcDbLine
 10
6445.8574651256
 20
5359.7862631251
 30
0.0
 11
6445.8432698462
 21
5359.7901261028
 31
0.0
  0
ARC
  5
9B
330
1F
100
AcDbEntity
  8
0
  6
SLD-Plná
 62
     7
370
    25
100
AcDbCircle
 10
6155.3294517441
 20
5164.4782042067
 30
0.0
 40
2.660714285713815
100
AcDbArc
 50
105.2233230462
 51
175.2073634433
  0
ARC
  5
9C
330
1F
100
AcDbEntity
  8
0
  6
SLD-Plná
 62
     7
370
    25
100
AcDbCircle
 10
6156.4266693048
 20
5160.4462601584
 30
0.0
 40
2.660714285715695
100
AcDbArc
 50
215.2392826491
 51
285.2233230462
  0
LINE
  5
9D
330
1F
100
AcDbEntity
  8
0
  6
SLD-Plná
 62
     7
370
    25
100
AcDbLine
 10
6155.4033382229
 20
5164.9239615138
 30
0.0
 11
6155.2216055736
 21
5164.8745063994
 31
0.0
  0
LINE
  5
9E
330
1F
100
AcDbEntity
  8
0
  6
SLD-Plná
 62
     7
370
    25
100
AcDbLine
 10
6156.5345154753
 20
5160.0499579656
 30
0.0
 11
6156.7203950892
 21
5160.1005415983
 31
0.0
  0
ARC
  5
9F
330
1F
100
AcDbEntity
  8
0
  6
SLD-Plná
 62
     7
370
    25
100
AcDbCircle
 10
6102.2878917171
 20
5359.3899609324
 30
0.0
 40
2.660714285714721
100
AcDbArc
 50
105.2233230462
 51
175.2073634433
  0
ARC
  5
A0
330
1F
100
AcDbEntity
  8
0
  6
SLD-Plná
 62
     7
370
    25
100
AcDbCircle
 10
6103.3851092778
 20
5355.3580168841
 30
0.0
 40
2.66071428571499
100
AcDbArc
 50
215.2392826491
 51
285.2233230462
  0
LINE
  5
A1
330
1F
100
AcDbEntity
  8
0
  6
SLD-Plná
 62
     7
370
    25
100
AcDbLine
 10
6102.194240826
 20
5359.7901261028
 30
0.0
 11
6102.1800455466
 21
5359.7862631251
 31
0.0
  0
LINE
  5
A2
330
1F
100
AcDbEntity
  8
0
  6
SLD-Plná
 62
     7
370
    25
100
AcDbLine
 10
6103.4929554483
 20
5354.9617146913
 30
0.0
 11
6103.5112976922
 21
5354.9667061872
 31
0.0
  0
LINE
  5
A3
330
1F
100
AcDbEntity
  8
0
  6
SLD-Plná
 62
     7
370
    25
100
AcDbLine
 10
6356.8187553361
 20
5390.030974172
 30
0.0
 11
6351.2187553361
 21
5390.030974172
 31
0.0
  0
LINE
  5
A4
330
1F
100
AcDbEntity
  8
0
  6
SLD-Plná
 62
     7
370
    25
100
AcDbLine
 10
6355.5187553361
 20
5391.380974172
 30
0.0
 11
6352.5187553361
 21
5391.380974172
 31
0.0
  0
LINE
  5
A5
330
1F
100
AcDbEntity
  8
0
  6
SLD-Plná
 62
     7
370
    25
100
AcDbLine
 10
6196.8187553361
 20
5390.030974172
 30
0.0
 11
6191.2187553361
 21
5390.030974172
 31
0.0
  0
LINE
  5
A6
330
1F
100
AcDbEntity
  8
0
  6
SLD-Plná
 62
     7
370
    25
100
AcDbLine
 10
6195.5187553361
 20
5391.380974172
 30
0.0
 11
6192.5187553361
 21
5391.380974172
 31
0.0
  0
LINE
  5
A7
330
1F
100
AcDbEntity
  8
0
  6
SLD-Plná
 62
     7
370
    25
100
AcDbLine
 10
6121.2506120887
 20
5280.1868391201
 30
0.0
 11
6122.4811126284
 21
5275.6651202695
 31
0.0
  0
LINE
  5
A8
330
1F
100
AcDbEntity
  8
0
  6
SLD-Plná
 62
     7
370
    25
100
AcDbLine
 10
6120.9056207464
 20
5281.4545783901
 30
0.0
 11
6121.2506120887
 21
5280.1868391201
 31
0.0
  0
LINE
  5
A9
330
1F
100
AcDbEntity
  8
0
  6
SLD-Plná
 62
     7
370
    25
100
AcDbLine
 10
6123.4046127897
 20
5281.7923714487
 30
0.0
 11
6125.3529053109
 21
5274.6329832685
 31
0.0
  0
LINE
  5
AA
330
1F
100
AcDbEntity
  8
0
  6
SLD-Plná
 62
     7
370
    25
100
AcDbLine
 10
6122.8583764978
 20
5283.7996252927
 30
0.0
 11
6123.4046127897
 21
5281.7923714487
 31
0.0
  0
LINE
  5
AB
330
1F
100
AcDbEntity
  8
0
  6
SLD-Plná
 62
     7
370
    25
100
AcDbLine
 10
6393.7839784236
 20
5158.9110481714
 30
0.0
 11
6395.3594703056
 21
5164.700506292
 31
0.0
  0
LINE
  5
AC
330
1F
100
AcDbEntity
  8
0
  6
SLD-Plná
 62
     7
370
    25
100
AcDbLine
 10
6390.9121857412
 20
5157.8789111704
 30
0.0
 11
6393.4067145543
 21
5167.0455531946
 31
0.0
  0
LINE
  5
AD
330
1F
100
AcDbEntity
  8
0
  6
SLD-Plná
 62
     7
370
    25
100
AcDbLine
 10
6425.5563980438
 20
5275.6651202695
 30
0.0
 11
6427.1318899258
 21
5281.4545783901
 31
0.0
  0
LINE
  5
AE
330
1F
100
AcDbEntity
  8
0
  6
SLD-Plná
 62
     7
370
    25
100
AcDbLine
 10
6422.6846053613
 20
5274.6329832685
 30
0.0
 11
6425.1791341744
 21
5283.7996252927
 31
0.0
  0
LINE
  5
AF
330
1F
100
AcDbEntity
  8
0
  6
SLD-Plná
 62
     7
370
    25
100
AcDbLine
 10
6446.8255384506
 20
5353.8228048971
 30
0.0
 11
6448.4010303326
 21
5359.6122630177
 31
0.0
  0
LINE
  5
B0
330
1F
100
AcDbEntity
  8
0
  6
SLD-Plná
 62
     7
370
    25
100
AcDbLine
 10
6443.9537457682
 20
5352.7906678961
 30
0.0
 11
6446.4482745813
 21
5361.9573099204
 31
0.0
  0
LINE
  5
B1
330
1F
100
AcDbEntity
  8
0
  6
SLD-Plná
 62
     7
370
    25
100
AcDbLine
 10
6153.0230317089
 20
5163.4327670221
 30
0.0
 11
6154.2535322486
 21
5158.9110481714
 31
0.0
  0
LINE
  5
B2
330
1F
100
AcDbEntity
  8
0
  6
SLD-Plná
 62
     7
370
    25
100
AcDbLine
 10
6152.6780403666
 20
5164.700506292
 30
0.0
 11
6153.0230317089
 21
5163.4327670221
 31
0.0
  0
LINE
  5
B3
330
1F
100
AcDbEntity
  8
0
  6
SLD-Plná
 62
     7
370
    25
100
AcDbLine
 10
6155.1770324099
 20
5165.0382993506
 30
0.0
 11
6157.125324931
 21
5157.8789111704
 31
0.0
  0
LINE
  5
B4
330
1F
100
AcDbEntity
  8
0
  6
SLD-Plná
 62
     7
370
    25
100
AcDbLine
 10
6154.6307961179
 20
5167.0455531946
 30
0.0
 11
6155.1770324099
 21
5165.0382993506
 31
0.0
  0
LINE
  5
B5
330
1F
100
AcDbEntity
  8
0
  6
SLD-Plná
 62
     7
370
    25
100
AcDbLine
 10
6099.9814716819
 20
5358.3445237478
 30
0.0
 11
6101.2119722216
 21
5353.8228048971
 31
0.0
  0
LINE
  5
B6
330
1F
100
AcDbEntity
  8
0
  6
SLD-Plná
 62
     7
370
    25
100
AcDbLine
 10
6099.6364803396
 20
5359.6122630177
 30
0.0
 11
6099.9814716819
 21
5358.3445237478
 31
0.0
  0
LINE
  5
B7
330
1F
100
AcDbEntity
  8
0
  6
SLD-Plná
 62
     7
370
    25
100
AcDbLine
 10
6102.1354723829
 20
5359.9500560763
 30
0.0
 11
6104.083764904
 21
5352.7906678961
 31
0.0
  0
LINE
  5
B8
330
1F
100
AcDbEntity
  8
0
  6
SLD-Plná
 62
     7
370
    25
100
AcDbLine
 10
6101.5892360909
 20
5361.9573099204
 30
0.0
 11
6102.1354723829
 21
5359.9500560763
 31
0.0
  0
SPLINE
  5
B9
330
1F
100
AcDbEntity
  8
0
  6
SLD-Plná
 62
     7
370
    25
100
AcDbSpline
210
0.0
220
0.0
230
1.0
 70
     8
 71
     3
 72
    31
 73
    27
 74
     0
 42
0.00000001
 43
0.00000001
 40
0.0
 40
0.0
 40
0.0
 40
0.0
 40
0.0416666666666666
 40
0.0833333333333332
 40
0.1249999999999998
 40
0.1666666666666668
 40
0.208333333333333
 40
0.2499999999999999
 40
0.2916666666666665
 40
0.3333333333333331
 40
0.375
 40
0.4166666666666666
 40
0.4583333333333331
 40
0.5000000000000001
 40
0.5416666666666663
 40
0.5833333333333333
 40
0.6249999999999998
 40
0.6666666666666664
 40
0.7083333333333333
 40
0.7500000000000001
 40
0.7916666666666666
 40
0.8333333333333333
 40
0.8749999999999999
 40
0.9166666666666666
 40
0.9583333333333331
 40
0.9999999999999999
 40
0.9999999999999999
 40
0.9999999999999999
 40
0.9999999999999999
 10
6170.797607274612
 20
5108.54596764604
 30
0.0
 10
6171.936163245445
 20
5104.838453061693
 30
0.0
 10
6174.213275187108
 20
5097.423423893
 30
0.0
 10
6179.133160485023
 20
5086.853879026326
 30
0.0
 10
6185.085348250455
 20
5076.849061072221
 30
0.0
 10
6192.110487748832
 20
5067.557318069036
 30
0.0
 10
6200.095960754252
 20
5059.080189990988
 30
0.0
 10
6208.955491097317
 20
5051.519890770382
 30
0.0
 10
6218.582392702375
 20
5044.965058204208
 30
0.0
 10
6228.863628572237
 20
5039.493203014461
 30
0.0
 10
6239.677715017341
 20
5035.168857624794
 30
0.0
 10
6250.897074294036
 20
5032.043065540875
 30
0.0
 10
6262.389293950261
 20
5030.152711732927
 30
0.0
 10
6274.0187553361
 20
5029.520105391535
 30
0.0
 10
6285.648216721939
 20
5030.152711732927
 30
0.0
 10
6297.140436378164
 20
5032.043065540875
 30
0.0
 10
6308.359795654859
 20
5035.168857624794
 30
0.0
 10
6319.173882099964
 20
5039.493203014461
 30
0.0
 10
6329.455117969826
 20
5044.965058204208
 30
0.0
 10
6339.082019574884
 20
5051.519890770382
 30
0.0
 10
6347.941549917949
 20
5059.080189990988
 30
0.0
 10
6355.927022923368
 20
5067.557318069036
 30
0.0
 10
6362.952162421746
 20
5076.84906107222
 30
0.0
 10
6368.904350187177
 20
5086.853879026326
 30
0.0
 10
6373.824235485093
 20
5097.423423893
 30
0.0
 10
6376.101347426756
 20
5104.838453061693
 30
0.0
 10
6377.239903397588
 20
5108.54596764604
 30
0.0
  0
LINE
  5
BA
330
1F
100
AcDbEntity
  8
0
  6
SLD-Plná
 62
     7
370
    25
100
AcDbLine
 10
6094.3637355628
 20
5388.4675628961
 30
0.0
 11
6170.7976072746
 21
5108.545967646
 31
0.0
  0
SPLINE
  5
BB
330
1F
100
AcDbEntity
  8
0
  6
SLD-Plná
 62
     7
370
    25
100
AcDbSpline
210
0.0
220
0.0
230
1.0
 70
     8
 71
     3
 72
    46
 73
    42
 74
     0
 42
0.00000001
 43
0.00000001
 40
0.0
 40
0.0
 40
0.0
 40
0.0
 40
0.0263746155235075
 40
0.0527493230424409
 40
0.0798905124585011
 40
0.1070319192887102
 40
0.1334282827807551
 40
0.1598248460623376
 40
0.1869866635271478
 40
0.2141485775607413
 40
0.2405785494177581
 40
0.2670084432157723
 40
0.2942034017191724
 40
0.3213981610770153
 40
0.3478646513419287
 40
0.3743310312084158
 40
0.4015629548214108
 40
0.4287949945594497
 40
0.4553106995170337
 40
0.4818266307649494
 40
0.5091117458642734
 40
0.536396998427951
 40
0.5629135604621651
 40
0.5894301207795478
 40
0.6167166468716347
 40
0.6440029938275985
 40
0.6705042643095049
 40
0.6970052975256551
 40
0.7242763063785247
 40
0.7515472164461785
 40
0.7780457434205827
 40
0.8045443951389366
 40
0.8318159127269565
 40
0.8590876081291683
 40
0.8855467726189756
 40
0.9120060065851211
 40
0.9392380431590035
 40
0.9664700120419455
 40
0.970023100025163
 40
0.984238788149204
 40
1.0
 40
1.0
 40
1.0
 40
1.0
 10
6453.673775109411
 20
5388.467562896056
 30
0.0
 10
6453.55387163346
 20
5388.467150903009
 30
0.0
 10
6453.314064263334
 20
5388.466326915477
 30
0.0
 10
6451.376494567598
 20
5388.460234274261
 30
0.0
 10
6448.24204167781
 20
5388.451267477218
 30
0.0
 10
6443.832887294648
 20
5388.439729399812
 30
0.0
 10
6438.269340202563
 20
5388.426492047168
 30
0.0
 10
6431.568051798755
 20
5388.412043158132
 30
0.0
 10
6423.678105152396
 20
5388.396738918456
 30
0.0
 10
6414.711098399825
 20
5388.381216042771
 30
0.0
 10
6404.831972245412
 20
5388.366075186294
 30
0.0
 10
6394.044350379834
 20
5388.351489174002
 30
0.0
 10
6382.296068978735
 20
5388.33771798521
 30
0.0
 10
6369.766147998615
 20
5388.325097854405
 30
0.0
 10
6356.672108471813
 20
5388.31403192916
 30
0.0
 10
6343.001620252106
 20
5388.304452899139
 30
0.0
 10
6328.705330994972
 20
5388.29649955837
 30
0.0
 10
6314.008538358793
 20
5388.290377882421
 30
0.0
 10
6299.159014628417
 20
5388.286176255956
 30
0.0
 10
6284.125654382833
 20
5388.283871159647
 30
0.0
 10
6268.874443363893
 20
5388.28354259055
 30
0.0
 10
6253.660167791724
 20
5388.285218915343
 30
0.0
 10
6238.735834567472
 20
5388.288842613179
 30
0.0
 10
6224.056049729658
 20
5388.294318801873
 30
0.0
 10
6209.592186240684
 20
5388.301701260852
 30
0.0
 10
6195.595256276202
 20
5388.310848329444
 30
0.0
 10
6182.292224674577
 20
5388.321501893258
 30
0.0
 10
6169.627153058272
 20
5388.333596626231
 30
0.0
 10
6157.589664614392
 20
5388.347056852261
 30
0.0
 10
6146.390249958544
 20
5388.361545552643
 30
0.0
 10
6136.208315662361
 20
5388.376623210059
 30
0.0
 10
6126.982331434699
 20
5388.391984681857
 30
0.0
 10
6118.724731839543
 20
5388.407487035384
 30
0.0
 10
6111.592782718304
 20
5388.422386006939
 30
0.0
 10
6105.688902061293
 20
5388.436070661873
 30
0.0
 10
6100.957174457328
 20
5388.448115009244
 30
0.0
 10
6097.423420919153
 20
5388.457978153705
 30
0.0
 10
6095.802696467552
 20
5388.462930828493
 30
0.0
 10
6094.959683064304
 20
5388.465594108813
 30
0.0
 10
6094.48591317657
 20
5388.467141712438
 30
0.0
 10
6094.40583759056
 20
5388.467417757484
 30
0.0
 10
6094.36373556279
 20
5388.467562896056
 30
0.0
  0
LINE
  5
BC
330
1F
100
AcDbEntity
  8
0
  6
SLD-Plná
 62
     7
370
    25
100
AcDbLine
 10
6377.2399033976
 20
5108.545967646
 30
0.0
 11
6453.6737751094
 21
5388.4675628961
 31
0.0
  0
ARC
  5
BD
330
1F
100
AcDbEntity
  8
0
  6
SLD-Plná
 62
     7
370
    25
100
AcDbCircle
 10
6095.3284191895
 20
5388.730974172
 30
0.0
 40
1.000000000000015
100
AcDbArc
 50
90.0
 51
195.2725719063
  0
SPLINE
  5
BE
330
1F
100
AcDbEntity
  8
0
  6
SLD-Plná
 62
     7
370
    25
100
AcDbSpline
210
0.0
220
0.0
230
1.0
 70
    24
 71
     3
 72
    45
 73
    41
 74
     0
 42
0.00000001
 43
0.00000001
 40
0.0
 40
0.0
 40
0.0
 40
0.0
 40
0.0167616969430525
 40
0.033523441011512
 40
0.0603161822230606
 40
0.0872051261562972
 40
0.1140941848708943
 40
0.1408870831643594
 40
0.1677222956146946
 40
0.1946537173992533
 40
0.2215850929652276
 40
0.248420242164242
 40
0.275259904175701
 40
0.3021955726035534
 40
0.3291314790429124
 40
0.3559714667759462
 40
0.3828294145130032
 40
0.4097834976107169
 40
0.4367377071795636
 40
0.4635958279944105
 40
0.4904539403398021
 40
0.5174079815091213
 40
0.5443617490267069
 40
0.5712194868771174
 40
0.5980248188690799
 40
0.6249255573885808
 40
0.6518262464573596
 40
0.6786315107764866
 40
0.7053968667410696
 40
0.7322575860048836
 40
0.7591183742431103
 40
0.785883824598781
 40
0.8126127436798468
 40
0.8394368521777421
 40
0.8662606839728012
 40
0.8929892243873355
 40
0.9196945002314545
 40
0.9464949733435413
 40
0.9732951414948245
 40
1.0
 40
1.0
 40
1.0
 40
1.0
 10
6095.328419189533
 20
5389.730974171999
 30
0.0
 10
6095.376677518972
 20
5389.730974171999
 30
0.0
 10
6095.47319431353
 20
5389.730974171999
 30
0.0
 10
6096.395636244329
 20
5389.730974171999
 30
0.0
 10
6098.336526900595
 20
5389.730974171999
 30
0.0
 10
6101.823444573154
 20
5389.730974171999
 30
0.0
 10
6106.513047135072
 20
5389.730974171999
 30
0.0
 10
6112.387337937014
 20
5389.730974171999
 30
0.0
 10
6119.442411589755
 20
5389.730974171999
 30
0.0
 10
6127.603912830138
 20
5389.730974171999
 30
0.0
 10
6136.793912212309
 20
5389.730974171999
 30
0.0
 10
6146.946391231507
 20
5389.730974171999
 30
0.0
 10
6158.025987838061
 20
5389.730974171999
 30
0.0
 10
6169.939063932148
 20
5389.730974171999
 30
0.0
 10
6182.582076114393
 20
5389.730974171999
 30
0.0
 10
6195.860390839045
 20
5389.730974171999
 30
0.0
 10
6209.710906155786
 20
5389.730974171999
 30
0.0
 10
6224.034791364557
 20
5389.730974171999
 30
0.0
 10
6238.709416351408
 20
5389.730974171999
 30
0.0
 10
6253.618256882172
 20
5389.730974171999
 30
0.0
 10
6268.675366371667
 20
5389.730974171999
 30
0.0
 10
6283.78605686593
 20
5389.730974171999
 30
0.0
 10
6298.828305337283
 20
5389.730974171999
 30
0.0
 10
6313.669572346414
 20
5389.730974171999
 30
0.0
 10
6328.212711041148
 20
5389.730974171999
 30
0.0
 10
6342.379725352658
 20
5389.730974171999
 30
0.0
 10
6356.069021237096
 20
5389.730974171999
 30
0.0
 10
6369.159849767243
 20
5389.730974171999
 30
0.0
 10
6381.554491976469
 20
5389.730974171999
 30
0.0
 10
6393.198250128194
 20
5389.730974171999
 30
0.0
 10
6404.00992226108
 20
5389.730974171999
 30
0.0
 10
6413.891172217466
 20
5389.730974171999
 30
0.0
 10
6422.755930276387
 20
5389.730974171999
 30
0.0
 10
6430.579900696835
 20
5389.730974171999
 30
0.0
 10
6437.312258711212
 20
5389.730974171999
 30
0.0
 10
6442.884738939118
 20
5389.730974171999
 30
0.0
 10
6447.239772612091
 20
5389.730974171999
 30
0.0
 10
6450.355478986681
 20
5389.730974171999
 30
0.0
 10
6452.33438540367
 20
5389.730974171999
 30
0.0
 10
6452.584337871557
 20
5389.730974171999
 30
0.0
 10
6452.709091482668
 20
5389.730974171999
 30
0.0
  0
ARC
  5
BF
330
1F
100
AcDbEntity
  8
0
  6
SLD-Plná
 62
     7
370
    25
100
AcDbCircle
 10
6452.7090914827
 20
5388.730974172
 30
0.0
 40
1.000000000000015
100
AcDbArc
 50
344.7274280937
 51
90.0
  0
LINE
  5
C0
330
1F
100
AcDbEntity
  8
0
  6
SLD-Plná
 62
     7
370
    25
100
AcDbLine
 10
6774.0659054007
 20
5389.730974172
 30
0.0
 11
6774.0659054007
 21
5390.030974172
 31
0.0
  0
LINE
  5
C1
330
1F
100
AcDbEntity
  8
0
  6
SLD-Plná
 62
     7
370
    25
100
AcDbLine
 10
6768.4659054007
 20
5390.030974172
 30
0.0
 11
6768.4659054007
 21
5389.730974172
 31
0.0
  0
ARC
  5
C2
330
1F
100
AcDbEntity
  8
0
  6
SLD-Plná
 62
     7
370
    25
100
AcDbCircle
 10
6771.2659054007
 20
5388.6356038016
 30
0.0
 40
3.12842747566774
100
AcDbArc
 50
118.651061369
 51
153.5107870043
  0
ARC
  5
C3
330
1F
100
AcDbEntity
  8
0
  6
SLD-Plná
 62
     7
370
    25
100
AcDbCircle
 10
6771.2659054007
 20
5388.6356038016
 30
0.0
 40
3.128427475666157
100
AcDbArc
 50
26.4892129957
 51
61.348938631
  0
SPLINE
  5
C4
330
1F
100
AcDbEntity
  8
0
  6
SLD-Plná
 62
     7
370
    25
100
AcDbSpline
210
0.0
220
0.0
230
1.0
 70
     8
 71
     3
 72
    21
 73
    17
 74
     0
 42
0.00000001
 43
0.00000001
 40
0.0
 40
0.0
 40
0.0
 40
0.0
 40
0.0135461176581729
 40
0.0931357488775914
 40
0.1724116928966682
 40
0.2515804363540478
 40
0.3308893107495499
 40
0.4105383163519462
 40
0.4906376344300383
 40
0.5711898893633879
 40
0.6520739156677057
 40
0.7330731175709003
 40
0.813952720273665
 40
0.8944986730339356
 40
0.9745868541122545
 40
0.9999999999999999
 40
0.9999999999999999
 40
0.9999999999999999
 40
0.9999999999999999
 10
6684.54238400861
 20
5279.407083478672
 30
0.0
 10
6684.532393558149
 20
5279.339267745978
 30
0.0
 10
6684.463704646036
 20
5278.873003594908
 30
0.0
 10
6684.643764443967
 20
5277.993852310873
 30
0.0
 10
6685.089957476344
 20
5276.872849164256
 30
0.0
 10
6685.837207750719
 20
5275.906640186802
 30
0.0
 10
6686.80036211779
 20
5275.158406624838
 30
0.0
 10
6687.929090291805
 20
5274.674537174566
 30
0.0
 10
6689.150210692389
 20
5274.488566308542
 30
0.0
 10
6690.385413238554
 20
5274.616813525221
 30
0.0
 10
6691.551645999656
 20
5275.055519227857
 30
0.0
 10
6692.565029247433
 20
5275.77803328458
 30
0.0
 10
6693.360858715585
 20
5276.736022015299
 30
0.0
 10
6693.854303154577
 20
5277.859339996713
 30
0.0
 10
6694.060097405853
 20
5278.801965797356
 30
0.0
 10
6693.991470588628
 20
5279.331953999234
 30
0.0
 10
6693.974939769841
 20
5279.45961748822
 30
0.0
  0
LINE
  5
C5
330
1F
100
AcDbEntity
  8
0
  6
SLD-Plná
 62
     7
370
    25
100
AcDbLine
 10
6690.0159054007
 20
5278.5598493298
 30
0.0
 11
6690.0159054007
 21
5278.9537223003
 31
0.0
  0
LINE
  5
C6
330
1F
100
AcDbEntity
  8
0
  6
SLD-Plná
 62
     7
370
    25
100
AcDbLine
 10
6688.5159054007
 20
5278.9537223003
 30
0.0
 11
6688.5159054007
 21
5278.5598493298
 31
0.0
  0
LINE
  5
C7
330
1F
100
AcDbEntity
  8
0
  6
SLD-Plná
 62
     7
370
    25
100
AcDbLine
 10
6690.8897944253
 20
5279.1260585533
 30
0.0
 11
6690.8897944253
 21
5278.7321855828
 31
0.0
  0
LINE
  5
C8
330
1F
100
AcDbEntity
  8
0
  6
SLD-Plná
 62
     7
370
    25
100
AcDbLine
 10
6687.6420163761
 20
5278.3875130767
 30
0.0
 11
6687.6420163761
 21
5278.7813860472
 31
0.0
  0
SPLINE
  5
C9
330
1F
100
AcDbEntity
  8
0
  6
SLD-Plná
 62
     7
370
    25
100
AcDbSpline
210
0.0
220
0.0
230
1.0
 70
     8
 71
     3
 72
    21
 73
    17
 74
     0
 42
0.00000001
 43
0.00000001
 40
0.0
 40
0.0
 40
0.0
 40
0.0
 40
0.0135461176581725
 40
0.0931357488775919
 40
0.1724116928966687
 40
0.2515804363540479
 40
0.33088931074955
 40
0.4105383163519464
 40
0.4906376344300385
 40
0.5711898893633881
 40
0.6520739156677059
 40
0.7330731175709002
 40
0.8139527202736653
 40
0.8944986730339354
 40
0.974586854112254
 40
1.0
 40
1.0
 40
1.0
 40
1.0
 10
6684.54238400861
 20
5162.653011380598
 30
0.0
 10
6684.532393558148
 20
5162.585195647903
 30
0.0
 10
6684.463704646035
 20
5162.118931496834
 30
0.0
 10
6684.643764443966
 20
5161.2397802128
 30
0.0
 10
6685.089957476344
 20
5160.118777066183
 30
0.0
 10
6685.837207750718
 20
5159.152568088729
 30
0.0
 10
6686.80036211779
 20
5158.404334526764
 30
0.0
 10
6687.929090291804
 20
5157.920465076491
 30
0.0
 10
6689.150210692389
 20
5157.734494210467
 30
0.0
 10
6690.385413238554
 20
5157.862741427147
 30
0.0
 10
6691.551645999655
 20
5158.301447129784
 30
0.0
 10
6692.565029247432
 20
5159.023961186505
 30
0.0
 10
6693.360858715584
 20
5159.981949917224
 30
0.0
 10
6693.854303154576
 20
5161.105267898639
 30
0.0
 10
6694.060097405853
 20
5162.047893699282
 30
0.0
 10
6693.991470588628
 20
5162.57788190116
 30
0.0
 10
6693.97493976984
 20
5162.705545390147
 30
0.0
  0
LINE
  5
CA
330
1F
100
AcDbEntity
  8
0
  6
SLD-Plná
 62
     7
370
    25
100
AcDbLine
 10
6690.0159054007
 20
5161.8057772317
 30
0.0
 11
6690.0159054007
 21
5162.1996502022
 31
0.0
  0
LINE
  5
CB
330
1F
100
AcDbEntity
  8
0
  6
SLD-Plná
 62
     7
370
    25
100
AcDbLine
 10
6688.5159054007
 20
5162.1996502022
 30
0.0
 11
6688.5159054007
 21
5161.8057772317
 31
0.0
  0
LINE
  5
CC
330
1F
100
AcDbEntity
  8
0
  6
SLD-Plná
 62
     7
370
    25
100
AcDbLine
 10
6690.8897944253
 20
5162.3719864553
 30
0.0
 11
6690.8897944253
 21
5161.9781134848
 31
0.0
  0
LINE
  5
CD
330
1F
100
AcDbEntity
  8
0
  6
SLD-Plná
 62
     7
370
    25
100
AcDbLine
 10
6687.6420163761
 20
5161.6334409786
 30
0.0
 11
6687.6420163761
 21
5162.0273139491
 31
0.0
  0
SPLINE
  5
CE
330
1F
100
AcDbEntity
  8
0
  6
SLD-Plná
 62
     7
370
    25
100
AcDbSpline
210
0.0
220
0.0
230
1.0
 70
     8
 71
     3
 72
    21
 73
    17
 74
     0
 42
0.00000001
 43
0.00000001
 40
0.0
 40
0.0
 40
0.0
 40
0.0
 40
0.0135461176581725
 40
0.0931357488775917
 40
0.1724116928966685
 40
0.2515804363540476
 40
0.3308893107495497
 40
0.4105383163519459
 40
0.490637634430038
 40
0.5711898893633875
 40
0.6520739156677051
 40
0.7330731175708993
 40
0.8139527202736663
 40
0.8944986730339353
 40
0.9745868541122542
 40
1.0
 40
1.0
 40
1.0
 40
1.0
 10
6684.542384008611
 20
5357.564768106308
 30
0.0
 10
6684.532393558149
 20
5357.496952373614
 30
0.0
 10
6684.463704646036
 20
5357.030688222545
 30
0.0
 10
6684.643764443967
 20
5356.15153693851
 30
0.0
 10
6685.089957476344
 20
5355.030533791893
 30
0.0
 10
6685.837207750719
 20
5354.064324814439
 30
0.0
 10
6686.80036211779
 20
5353.316091252475
 30
0.0
 10
6687.929090291805
 20
5352.832221802202
 30
0.0
 10
6689.15021069239
 20
5352.646250936178
 30
0.0
 10
6690.385413238554
 20
5352.774498152858
 30
0.0
 10
6691.551645999656
 20
5353.213203855494
 30
0.0
 10
6692.565029247433
 20
5353.935717912216
 30
0.0
 10
6693.360858715585
 20
5354.893706642935
 30
0.0
 10
6693.854303154577
 20
5356.01702462435
 30
0.0
 10
6694.060097405854
 20
5356.959650424993
 30
0.0
 10
6693.991470588629
 20
5357.489638626871
 30
0.0
 10
6693.974939769841
 20
5357.617302115857
 30
0.0
  0
LINE
  5
CF
330
1F
100
AcDbEntity
  8
0
  6
SLD-Plná
 62
     7
370
    25
100
AcDbLine
 10
6690.0159054007
 20
5356.7175339574
 30
0.0
 11
6690.0159054007
 21
5357.1114069279
 31
0.0
  0
LINE
  5
D0
330
1F
100
AcDbEntity
  8
0
  6
SLD-Plná
 62
     7
370
    25
100
AcDbLine
 10
6688.5159054007
 20
5357.1114069279
 30
0.0
 11
6688.5159054007
 21
5356.7175339574
 31
0.0
  0
LINE
  5
D1
330
1F
100
AcDbEntity
  8
0
  6
SLD-Plná
 62
     7
370
    25
100
AcDbLine
 10
6690.8897944253
 20
5357.283743181
 30
0.0
 11
6690.8897944253
 21
5356.8898702105
 31
0.0
  0
LINE
  5
D2
330
1F
100
AcDbEntity
  8
0
  6
SLD-Plná
 62
     7
370
    25
100
AcDbLine
 10
6687.6420163761
 20
5356.5451977043
 30
0.0
 11
6687.6420163761
 21
5356.9390706748
 31
0.0
  0
ARC
  5
D3
330
1F
100
AcDbEntity
  8
0
  6
SLD-Plná
 62
     7
370
    25
100
AcDbCircle
 10
7190.6478713951
 20
5388.730974172
 30
0.0
 40
1.000000000000287
100
AcDbArc
 50
328.427569523
 51
90.0000433902
  0
LINE
  5
D4
330
1F
100
AcDbEntity
  8
0
  6
SLD-Plná
 62
     7
370
    25
100
AcDbLine
 10
7012.2659054007
 20
5029.730974172
 30
0.0
 11
7191.5128724454
 21
5388.2249082614
 31
0.0
  0
LINE
  5
D5
330
1F
100
AcDbEntity
  8
0
  6
SLD-Plná
 62
     7
370
    25
100
AcDbLine
 10
6662.2659054007
 20
5029.730974172
 30
0.0
 11
7012.2761208106
 21
5029.730974172
 31
0.0
  0
LINE
  5
D6
330
1F
100
AcDbEntity
  8
0
  6
SLD-Plná
 62
     7
370
    25
100
AcDbLine
 10
6774.0659054007
 20
5390.030974172
 30
0.0
 11
6768.4659054007
 21
5390.030974172
 31
0.0
  0
LINE
  5
D7
330
1F
100
AcDbEntity
  8
0
  6
SLD-Plná
 62
     7
370
    25
100
AcDbLine
 10
6772.7659054007
 20
5391.380974172
 30
0.0
 11
6769.7659054007
 21
5391.380974172
 31
0.0
  0
LWPOLYLINE
  5
D8
330
1F
100
AcDbEntity
  8
0
  6
SLD-Plná
 62
     7
370
    25
100
AcDbPolyline
 90
       19
 70
   128
 43
0.0
 10
6691.7472100147
 20
5280.1868391201
 10
6692.1742688964
 20
5279.2698430806
 10
6692.2505362177
 20
5278.2672113164
 10
6691.9668130139
 20
5277.2998760154
 10
6691.3573204909
 20
5276.4845120914
 10
6690.495572442
 20
5275.9194644671
 10
6689.4855084
 20
5275.6728862251
 10
6688.4489569952
 20
5275.7745183406
 10
6687.510941625
 20
5276.2121024804
 10
6686.7846007867
 20
5276.9328595394
 10
6686.357541905
 20
5277.8498555789
 10
6686.2812745837
 20
5278.8524873432
 10
6686.5649977874
 20
5279.8198226441
 10
6687.1744903105
 20
5280.6351865681
 10
6688.0362383594
 20
5281.2002341925
 10
6689.0463024014
 20
5281.4468124345
 10
6690.0828538062
 20
5281.345180319
 10
6691.0208691764
 20
5280.9075961791
 10
6691.7472100147
 20
5280.1868391201
  0
LWPOLYLINE
  5
D9
330
1F
100
AcDbEntity
  8
0
  6
SLD-Plná
 62
     7
370
    25
100
AcDbPolyline
 90
        3
 70
   128
 43
0.0
 10
6693.1946377062
 20
5281.7923714487
 10
6693.7692394539
 20
5280.6740789029
 10
6694.0096544401
 20
5279.4513643831
  0
ARC
  5
DA
330
1F
100
AcDbEntity
  8
0
  6
SLD-Plná
 62
     7
370
    25
100
AcDbCircle
 10
6689.2796133356
 20
5279.0644024034
 30
0.0
 40
4.771711530893346
100
AcDbArc
 50
34.8685873784
 51
175.9652910275
  0
ARC
  5
DB
330
1F
100
AcDbEntity
  8
0
  6
SLD-Plná
 62
     7
370
    25
100
AcDbCircle
 10
6690.7619405006
 20
5279.5366589512
 30
0.0
 40
0.4380668634726019
100
AcDbArc
 50
318.9253112808
 51
111.3854979951
  0
ARC
  5
DC
330
1F
100
AcDbEntity
  8
0
  6
SLD-Plná
 62
     7
370
    25
100
AcDbCircle
 10
6690.3265638494
 20
5280.7129646173
 30
0.0
 40
0.8163433554002302
100
AcDbArc
 50
200.2480522692
 51
289.7338479676
  0
ARC
  5
DD
330
1F
100
AcDbEntity
  8
0
  6
SLD-Plná
 62
     7
370
    25
100
AcDbCircle
 10
6689.1348276021
 20
5280.2743989416
 30
0.0
 40
0.4535294171710422
100
AcDbArc
 50
20.1244280039
 51
167.9776879705
  0
ARC
  5
DE
330
1F
100
AcDbEntity
  8
0
  6
SLD-Plná
 62
     7
370
    25
100
AcDbCircle
 10
6687.9000486158
 20
5280.5321668554
 30
0.0
 40
0.8078737444996739
100
AcDbArc
 50
258.1676059143
 51
348.3380525929
  0
ARC
  5
DF
330
1F
100
AcDbEntity
  8
0
  6
SLD-Plná
 62
     7
370
    25
100
AcDbCircle
 10
6687.6344287323
 20
5279.3178323032
 30
0.0
 40
0.4352618147897538
100
AcDbArc
 50
76.7224598385
 51
230.0515152247
  0
ARC
  5
E0
330
1F
100
AcDbEntity
  8
0
  6
SLD-Plná
 62
     7
370
    25
100
AcDbCircle
 10
6686.878113499
 20
5278.3880173199
 30
0.0
 40
0.7633781761722183
100
AcDbArc
 50
317.3554444625
 51
51.3444526203
  0
ARC
  5
E1
330
1F
100
AcDbEntity
  8
0
  6
SLD-Plná
 62
     7
370
    25
100
AcDbCircle
 10
6687.7698703008
 20
5277.5830397083
 30
0.0
 40
0.4380668634732875
100
AcDbArc
 50
138.9253112809
 51
291.385497995
  0
ARC
  5
E2
330
1F
100
AcDbEntity
  8
0
  6
SLD-Plná
 62
     7
370
    25
100
AcDbCircle
 10
6688.205246952
 20
5276.4067340423
 30
0.0
 40
0.8163433553988251
100
AcDbArc
 50
20.2480522691
 51
109.7338479677
  0
ARC
  5
E3
330
1F
100
AcDbEntity
  8
0
  6
SLD-Plná
 62
     7
370
    25
100
AcDbCircle
 10
6689.3969831993
 20
5276.8452997179
 30
0.0
 40
0.4535294171710422
100
AcDbArc
 50
200.1244280039
 51
347.9776879705
  0
ARC
  5
E4
330
1F
100
AcDbEntity
  8
0
  6
SLD-Plná
 62
     7
370
    25
100
AcDbCircle
 10
6690.6317621856
 20
5276.5875318041
 30
0.0
 40
0.8078737445006724
100
AcDbArc
 50
78.1676059144
 51
168.3380525929
  0
ARC
  5
E5
330
1F
100
AcDbEntity
  8
0
  6
SLD-Plná
 62
     7
370
    25
100
AcDbCircle
 10
6690.8973820691
 20
5277.8018663564
 30
0.0
 40
0.4352618147887563
100
AcDbArc
 50
256.7224598382
 51
50.051515225
  0
ARC
  5
E6
330
1F
100
AcDbEntity
  8
0
  6
SLD-Plná
 62
     7
370
    25
100
AcDbCircle
 10
6691.6536973024
 20
5278.7316813396
 30
0.0
 40
0.7633781761721283
100
AcDbArc
 50
137.3554444626
 51
231.3444526204
  0
LINE
  5
E7
330
1F
100
AcDbEntity
  8
0
  6
SLD-Plná
 62
     7
370
    25
100
AcDbLine
 10
6691.0921788371
 20
5279.6427034694
 30
0.0
 11
6691.0921788371
 21
5279.2488304989
 31
0.0
  0
LINE
  5
E8
330
1F
100
AcDbEntity
  8
0
  6
SLD-Plná
 62
     7
370
    25
100
AcDbLine
 10
6691.0921788371
 20
5279.6427034694
 30
0.0
 11
6691.1557416059
 21
5279.7329796892
 31
0.0
  0
LWPOLYLINE
  5
E9
330
1F
100
AcDbEntity
  8
0
  6
SLD-Plná
 62
     7
370
    25
100
AcDbPolyline
 90
        3
 70
   128
 43
0.0
 10
6687.2443073959
 20
5279.5127698037
 10
6687.2592510838
 20
5279.4866905018
 10
6687.3549477341
 20
5279.37802396
  0
LINE
  5
EA
330
1F
100
AcDbEntity
  8
0
  6
SLD-Plná
 62
     7
370
    25
100
AcDbLine
 10
6687.3549477341
 20
5279.37802396
 30
0.0
 11
6687.3549477341
 21
5278.9841509895
 31
0.0
  0
LWPOLYLINE
  5
EB
330
1F
100
AcDbEntity
  8
0
  6
SLD-Plná
 62
     7
370
    25
100
AcDbPolyline
 90
       17
 70
   128
 43
0.0
 10
6688.6455792472
 20
5278.1531018822
 10
6688.8541149074
 20
5277.9550051847
 10
6689.1253419372
 20
5277.8489905254
 10
6689.4179684802
 20
5277.8511976751
 10
6689.6874447978
 20
5277.9612906153
 10
6689.8927455634
 20
5278.1625086938
 10
6690.0026155966
 20
5278.4242182823
 10
6690.0003281807
 20
5278.7065764682
 10
6689.8862315542
 20
5278.9665967774
 10
6689.677695894
 20
5279.1646934748
 10
6689.4064688642
 20
5279.2707081341
 10
6689.1138423212
 20
5279.2685009844
 10
6688.8443660036
 20
5279.1584080442
 10
6688.639065238
 20
5278.9571899657
 10
6688.5291952048
 20
5278.6954803773
 10
6688.5314826207
 20
5278.4131221914
 10
6688.6455792472
 20
5278.1531018822
  0
ARC
  5
EC
330
1F
100
AcDbEntity
  8
0
  6
SLD-Plná
 62
     7
370
    25
100
AcDbCircle
 10
6689.2659054007
 20
5278.9350512189
 30
0.0
 40
0.7502323701895263
100
AcDbArc
 50
1.4260709934
 51
178.5739290066
  0
ARC
  5
ED
330
1F
100
AcDbEntity
  8
0
  6
SLD-Plná
 62
     7
370
    25
100
AcDbCircle
 10
6691.6549165235
 20
5279.1243009127
 30
0.0
 40
0.7651241170393193
100
AcDbArc
 50
137.3482553364
 51
179.8683802031
  0
ARC
  5
EE
330
1F
100
AcDbEntity
  8
0
  6
SLD-Plná
 62
     7
370
    25
100
AcDbCircle
 10
6686.873080988
 20
5278.7787971478
 30
0.0
 40
0.7689397463656039
100
AcDbArc
 50
0.1929062617
 51
51.1955855084
  0
LINE
  5
EF
330
1F
100
AcDbEntity
  8
0
  6
SLD-Plná
 62
     7
370
    25
100
AcDbLine
 10
6690.7974162562
 20
5277.7721125057
 30
0.0
 11
6690.7974162562
 21
5277.3782395352
 31
0.0
  0
ARC
  5
F0
330
1F
100
AcDbEntity
  8
0
  6
SLD-Plná
 62
     7
370
    25
100
AcDbCircle
 10
6690.8878377243
 20
5278.217816353
 30
0.0
 40
0.4547834225569223
100
AcDbArc
 50
258.5318520974
 51
331.4984757461
  0
ARC
  5
F1
330
1F
100
AcDbEntity
  8
0
  6
SLD-Plná
 62
     7
370
    25
100
AcDbCircle
 10
6687.7765018307
 20
5277.9983229933
 30
0.0
 40
0.4557994148177251
100
AcDbArc
 50
208.5346735541
 51
289.6276276068
  0
LINE
  5
F2
330
1F
100
AcDbEntity
  8
0
  6
SLD-Plná
 62
     7
370
    25
100
AcDbLine
 10
6687.9296074905
 20
5277.5690075341
 30
0.0
 11
6687.9296074905
 21
5277.1751345636
 31
0.0
  0
LINE
  5
F3
330
1F
100
AcDbEntity
  8
0
  6
SLD-Plná
 62
     7
370
    25
100
AcDbLine
 10
6689.8405651571
 20
5277.1447058743
 30
0.0
 11
6689.8405651571
 21
5276.7508329038
 31
0.0
  0
ARC
  5
F4
330
1F
100
AcDbEntity
  8
0
  6
SLD-Plná
 62
     7
370
    25
100
AcDbCircle
 10
6690.6317621856
 20
5276.9814047746
 30
0.0
 40
0.8078737445001208
100
AcDbArc
 50
78.1676059143
 51
168.3380525931
  0
LINE
  5
F5
330
1F
100
AcDbEntity
  8
0
  6
SLD-Plná
 62
     7
370
    25
100
AcDbLine
 10
6688.9711428199
 20
5277.0831313366
 30
0.0
 11
6688.9711428199
 21
5276.6892583661
 31
0.0
  0
ARC
  5
F6
330
1F
100
AcDbEntity
  8
0
  6
SLD-Plná
 62
     7
370
    25
100
AcDbCircle
 10
6688.205246952
 20
5276.8006070128
 30
0.0
 40
0.8163433554002302
100
AcDbArc
 50
20.2480522691
 51
109.7338479676
  0
ARC
  5
F7
330
1F
100
AcDbEntity
  8
0
  6
SLD-Plná
 62
     7
370
    25
100
AcDbCircle
 10
6689.3969831993
 20
5277.2391726884
 30
0.0
 40
0.4535294171714412
100
AcDbArc
 50
200.1244280042
 51
347.9776879702
  0
LWPOLYLINE
  5
F8
330
1F
100
AcDbEntity
  8
0
  6
SLD-Plná
 62
     7
370
    25
100
AcDbPolyline
 90
       19
 70
   128
 43
0.0
 10
6691.7472100147
 20
5163.4327670221
 10
6692.1742688964
 20
5162.5157709826
 10
6692.2505362177
 20
5161.5131392183
 10
6691.9668130139
 20
5160.5458039174
 10
6691.3573204909
 20
5159.7304399933
 10
6690.495572442
 20
5159.165392369
 10
6689.4855084
 20
5158.918814127
 10
6688.4489569952
 20
5159.0204462425
 10
6687.510941625
 20
5159.4580303824
 10
6686.7846007867
 20
5160.1787874413
 10
6686.357541905
 20
5161.0957834808
 10
6686.2812745837
 20
5162.0984152451
 10
6686.5649977874
 20
5163.065750546
 10
6687.1744903105
 20
5163.8811144701
 10
6688.0362383594
 20
5164.4461620944
 10
6689.0463024014
 20
5164.6927403364
 10
6690.0828538062
 20
5164.5911082209
 10
6691.0208691764
 20
5164.153524081
 10
6691.7472100147
 20
5163.4327670221
  0
LWPOLYLINE
  5
F9
330
1F
100
AcDbEntity
  8
0
  6
SLD-Plná
 62
     7
370
    25
100
AcDbPolyline
 90
        3
 70
   128
 43
0.0
 10
6693.1946377062
 20
5165.0382993506
 10
6693.7692394539
 20
5163.9200068048
 10
6694.0096544401
 20
5162.697292285
  0
ARC
  5
FA
330
1F
100
AcDbEntity
  8
0
  6
SLD-Plná
 62
     7
370
    25
100
AcDbCircle
 10
6689.2796133356
 20
5162.3103303053
 30
0.0
 40
4.771711530893674
100
AcDbArc
 50
34.8685873785
 51
175.9652910275
  0
ARC
  5
FB
330
1F
100
AcDbEntity
  8
0
  6
SLD-Plná
 62
     7
370
    25
100
AcDbCircle
 10
6690.7619405006
 20
5162.7825868531
 30
0.0
 40
0.4380668634725139
100
AcDbArc
 50
318.9253112806
 51
111.3854979951
  0
ARC
  5
FC
330
1F
100
AcDbEntity
  8
0
  6
SLD-Plná
 62
     7
370
    25
100
AcDbCircle
 10
6690.3265638494
 20
5163.9588925192
 30
0.0
 40
0.8163433553991565
100
AcDbArc
 50
200.2480522691
 51
289.7338479676
  0
ARC
  5
FD
330
1F
100
AcDbEntity
  8
0
  6
SLD-Plná
 62
     7
370
    25
100
AcDbCircle
 10
6689.1348276021
 20
5163.5203268436
 30
0.0
 40
0.4535294171712316
100
AcDbArc
 50
20.124428004
 51
167.9776879704
  0
ARC
  5
FE
330
1F
100
AcDbEntity
  8
0
  6
SLD-Plná
 62
     7
370
    25
100
AcDbCircle
 10
6687.9000486158
 20
5163.7780947574
 30
0.0
 40
0.8078737445013793
100
AcDbArc
 50
258.1676059144
 51
348.338052593
  0
ARC
  5
FF
330
1F
100
AcDbEntity
  8
0
  6
SLD-Plná
 62
     7
370
    25
100
AcDbCircle
 10
6687.6344287323
 20
5162.5637602051
 30
0.0
 40
0.4352618147892831
100
AcDbArc
 50
76.7224598384
 51
230.051515225
  0
ARC
  5
100
330
1F
100
AcDbEntity
  8
0
  6
SLD-Plná
 62
     7
370
    25
100
AcDbCircle
 10
6686.878113499
 20
5161.6339452219
 30
0.0
 40
0.7633781761722711
100
AcDbArc
 50
317.3554444626
 51
51.3444526203
  0
ARC
  5
101
330
1F
100
AcDbEntity
  8
0
  6
SLD-Plná
 62
     7
370
    25
100
AcDbCircle
 10
6687.7698703008
 20
5160.8289676103
 30
0.0
 40
0.4380668634713187
100
AcDbArc
 50
138.9253112808
 51
291.3854979953
  0
ARC
  5
102
330
1F
100
AcDbEntity
  8
0
  6
SLD-Plná
 62
     7
370
    25
100
AcDbCircle
 10
6688.205246952
 20
5159.6526619442
 30
0.0
 40
0.8163433554005373
100
AcDbArc
 50
20.2480522691
 51
109.7338479676
  0
ARC
  5
103
330
1F
100
AcDbEntity
  8
0
  6
SLD-Plná
 62
     7
370
    25
100
AcDbCircle
 10
6689.3969831993
 20
5160.0912276198
 30
0.0
 40
0.4535294171719823
100
AcDbArc
 50
200.124428004
 51
347.9776879703
  0
ARC
  5
104
330
1F
100
AcDbEntity
  8
0
  6
SLD-Plná
 62
     7
370
    25
100
AcDbCircle
 10
6690.6317621856
 20
5159.8334597061
 30
0.0
 40
0.8078737445014542
100
AcDbArc
 50
78.1676059143
 51
168.3380525928
  0
ARC
  5
105
330
1F
100
AcDbEntity
  8
0
  6
SLD-Plná
 62
     7
370
    25
100
AcDbCircle
 10
6690.8973820691
 20
5161.0477942583
 30
0.0
 40
0.4352618147892831
100
AcDbArc
 50
256.7224598383
 51
50.051515225
  0
ARC
  5
106
330
1F
100
AcDbEntity
  8
0
  6
SLD-Plná
 62
     7
370
    25
100
AcDbCircle
 10
6691.6536973024
 20
5161.9776092416
 30
0.0
 40
0.7633781761726963
100
AcDbArc
 50
137.3554444627
 51
231.3444526203
  0
LINE
  5
107
330
1F
100
AcDbEntity
  8
0
  6
SLD-Plná
 62
     7
370
    25
100
AcDbLine
 10
6691.0921788371
 20
5162.8886313713
 30
0.0
 11
6691.0921788371
 21
5162.4947584008
 31
0.0
  0
LINE
  5
108
330
1F
100
AcDbEntity
  8
0
  6
SLD-Plná
 62
     7
370
    25
100
AcDbLine
 10
6691.0921788371
 20
5162.8886313713
 30
0.0
 11
6691.1557416059
 21
5162.9789075912
 31
0.0
  0
LWPOLYLINE
  5
109
330
1F
100
AcDbEntity
  8
0
  6
SLD-Plná
 62
     7
370
    25
100
AcDbPolyline
 90
        3
 70
   128
 43
0.0
 10
6687.2443073959
 20
5162.7586977056
 10
6687.2592510838
 20
5162.7326184038
 10
6687.3549477341
 20
5162.623951862
  0
LINE
  5
10A
330
1F
100
AcDbEntity
  8
0
  6
SLD-Plná
 62
     7
370
    25
100
AcDbLine
 10
6687.3549477341
 20
5162.623951862
 30
0.0
 11
6687.3549477341
 21
5162.2300788915
 31
0.0
  0
LWPOLYLINE
  5
10B
330
1F
100
AcDbEntity
  8
0
  6
SLD-Plná
 62
     7
370
    25
100
AcDbPolyline
 90
       17
 70
   128
 43
0.0
 10
6688.6455792472
 20
5161.3990297841
 10
6688.8541149074
 20
5161.2009330867
 10
6689.1253419372
 20
5161.0949184274
 10
6689.4179684802
 20
5161.0971255771
 10
6689.6874447978
 20
5161.2072185172
 10
6689.8927455634
 20
5161.4084365958
 10
6690.0026155966
 20
5161.6701461842
 10
6690.0003281807
 20
5161.9525043701
 10
6689.8862315542
 20
5162.2125246793
 10
6689.677695894
 20
5162.4106213768
 10
6689.4064688642
 20
5162.5166360361
 10
6689.1138423212
 20
5162.5144288864
 10
6688.8443660036
 20
5162.4043359462
 10
6688.639065238
 20
5162.2031178677
 10
6688.5291952048
 20
5161.9414082792
 10
6688.5314826207
 20
5161.6590500933
 10
6688.6455792472
 20
5161.3990297841
  0
ARC
  5
10C
330
1F
100
AcDbEntity
  8
0
  6
SLD-Plná
 62
     7
370
    25
100
AcDbCircle
 10
6689.2659054007
 20
5162.1809791209
 30
0.0
 40
0.750232370188617
100
AcDbArc
 50
1.4260709934
 51
178.5739290066
  0
ARC
  5
10D
330
1F
100
AcDbEntity
  8
0
  6
SLD-Plná
 62
     7
370
    25
100
AcDbCircle
 10
6691.6549165235
 20
5162.3702288146
 30
0.0
 40
0.7651241170283866
100
AcDbArc
 50
137.3482553363
 51
179.8683802037
  0
ARC
  5
10E
330
1F
100
AcDbEntity
  8
0
  6
SLD-Plná
 62
     7
370
    25
100
AcDbCircle
 10
6686.873080988
 20
5162.0247250497
 30
0.0
 40
0.7689397463619567
100
AcDbArc
 50
0.1929062615
 51
51.1955855084
  0
LINE
  5
10F
330
1F
100
AcDbEntity
  8
0
  6
SLD-Plná
 62
     7
370
    25
100
AcDbLine
 10
6690.7974162562
 20
5161.0180404076
 30
0.0
 11
6690.7974162562
 21
5160.6241674371
 31
0.0
  0
ARC
  5
110
330
1F
100
AcDbEntity
  8
0
  6
SLD-Plná
 62
     7
370
    25
100
AcDbCircle
 10
6690.8878377243
 20
5161.4637442549
 30
0.0
 40
0.454783422560126
100
AcDbArc
 50
258.5318520977
 51
331.4984757442
  0
ARC
  5
111
330
1F
100
AcDbEntity
  8
0
  6
SLD-Plná
 62
     7
370
    25
100
AcDbCircle
 10
6687.7765018307
 20
5161.2442508952
 30
0.0
 40
0.4557994148159683
100
AcDbArc
 50
208.5346735599
 51
289.6276276069
  0
LINE
  5
112
330
1F
100
AcDbEntity
  8
0
  6
SLD-Plná
 62
     7
370
    25
100
AcDbLine
 10
6687.9296074905
 20
5160.814935436
 30
0.0
 11
6687.9296074905
 21
5160.4210624655
 31
0.0
  0
LINE
  5
113
330
1F
100
AcDbEntity
  8
0
  6
SLD-Plná
 62
     7
370
    25
100
AcDbLine
 10
6689.8405651571
 20
5160.3906337762
 30
0.0
 11
6689.8405651571
 21
5159.9967608057
 31
0.0
  0
ARC
  5
114
330
1F
100
AcDbEntity
  8
0
  6
SLD-Plná
 62
     7
370
    25
100
AcDbCircle
 10
6690.6317621856
 20
5160.2273326766
 30
0.0
 40
0.8078737444985232
100
AcDbArc
 50
78.1676059142
 51
168.338052593
  0
LINE
  5
115
330
1F
100
AcDbEntity
  8
0
  6
SLD-Plná
 62
     7
370
    25
100
AcDbLine
 10
6688.9711428199
 20
5160.3290592385
 30
0.0
 11
6688.9711428199
 21
5159.935186268
 31
0.0
  0
ARC
  5
116
330
1F
100
AcDbEntity
  8
0
  6
SLD-Plná
 62
     7
370
    25
100
AcDbCircle
 10
6688.205246952
 20
5160.0465349147
 30
0.0
 40
0.81634335539742
100
AcDbArc
 50
20.248052269
 51
109.7338479678
  0
ARC
  5
117
330
1F
100
AcDbEntity
  8
0
  6
SLD-Plná
 62
     7
370
    25
100
AcDbCircle
 10
6689.3969831993
 20
5160.4851005903
 30
0.0
 40
0.4535294171719823
100
AcDbArc
 50
200.124428004
 51
347.9776879703
  0
LWPOLYLINE
  5
118
330
1F
100
AcDbEntity
  8
0
  6
SLD-Plná
 62
     7
370
    25
100
AcDbPolyline
 90
       19
 70
   128
 43
0.0
 10
6691.7472100147
 20
5358.3445237478
 10
6692.1742688964
 20
5357.4275277083
 10
6692.2505362177
 20
5356.424895944
 10
6691.9668130139
 20
5355.4575606431
 10
6691.3573204909
 20
5354.6421967191
 10
6690.495572442
 20
5354.0771490947
 10
6689.4855084
 20
5353.8305708527
 10
6688.4489569952
 20
5353.9322029682
 10
6687.510941625
 20
5354.3697871081
 10
6686.7846007867
 20
5355.0905441671
 10
6686.357541905
 20
5356.0075402066
 10
6686.2812745837
 20
5357.0101719708
 10
6686.5649977874
 20
5357.9775072718
 10
6687.1744903105
 20
5358.7928711958
 10
6688.0362383594
 20
5359.3579188201
 10
6689.0463024014
 20
5359.6044970621
 10
6690.0828538062
 20
5359.5028649466
 10
6691.0208691764
 20
5359.0652808067
 10
6691.7472100147
 20
5358.3445237478
  0
LWPOLYLINE
  5
119
330
1F
100
AcDbEntity
  8
0
  6
SLD-Plná
 62
     7
370
    25
100
AcDbPolyline
 90
        3
 70
   128
 43
0.0
 10
6693.1946377062
 20
5359.9500560763
 10
6693.7692394539
 20
5358.8317635305
 10
6694.0096544401
 20
5357.6090490107
  0
ARC
  5
11A
330
1F
100
AcDbEntity
  8
0
  6
SLD-Plná
 62
     7
370
    25
100
AcDbCircle
 10
6689.2796133356
 20
5357.222087031
 30
0.0
 40
4.771711530893738
100
AcDbArc
 50
34.8685873785
 51
175.9652910274
  0
ARC
  5
11B
330
1F
100
AcDbEntity
  8
0
  6
SLD-Plná
 62
     7
370
    25
100
AcDbCircle
 10
6690.7619405006
 20
5357.6943435788
 30
0.0
 40
0.4380668634718283
100
AcDbArc
 50
318.9253112805
 51
111.3854979952
  0
ARC
  5
11C
330
1F
100
AcDbEntity
  8
0
  6
SLD-Plná
 62
     7
370
    25
100
AcDbCircle
 10
6690.3265638494
 20
5358.8706492449
 30
0.0
 40
0.8163433553983032
100
AcDbArc
 50
200.2480522691
 51
289.7338479677
  0
ARC
  5
11D
330
1F
100
AcDbEntity
  8
0
  6
SLD-Plná
 62
     7
370
    25
100
AcDbCircle
 10
6689.1348276021
 20
5358.4320835693
 30
0.0
 40
0.4535294171719823
100
AcDbArc
 50
20.124428004
 51
167.9776879701
  0
ARC
  5
11E
330
1F
100
AcDbEntity
  8
0
  6
SLD-Plná
 62
     7
370
    25
100
AcDbCircle
 10
6687.9000486158
 20
5358.6898514831
 30
0.0
 40
0.8078737444973763
100
AcDbArc
 50
258.1676059141
 51
348.3380525932
  0
ARC
  5
11F
330
1F
100
AcDbEntity
  8
0
  6
SLD-Plná
 62
     7
370
    25
100
AcDbCircle
 10
6687.6344287323
 20
5357.4755169308
 30
0.0
 40
0.4352618147886991
100
AcDbArc
 50
76.7224598383
 51
230.0515152251
  0
ARC
  5
120
330
1F
100
AcDbEntity
  8
0
  6
SLD-Plná
 62
     7
370
    25
100
AcDbCircle
 10
6686.878113499
 20
5356.5457019476
 30
0.0
 40
0.7633781761732644
100
AcDbArc
 50
317.3554444627
 51
51.3444526202
  0
ARC
  5
121
330
1F
100
AcDbEntity
  8
0
  6
SLD-Plná
 62
     7
370
    25
100
AcDbCircle
 10
6687.7698703008
 20
5355.740724336
 30
0.0
 40
0.4380668634719163
100
AcDbArc
 50
138.9253112807
 51
291.3854979953
  0
ARC
  5
122
330
1F
100
AcDbEntity
  8
0
  6
SLD-Plná
 62
     7
370
    25
100
AcDbCircle
 10
6688.205246952
 20
5354.5644186699
 30
0.0
 40
0.8163433554002302
100
AcDbArc
 50
20.2480522691
 51
109.7338479676
  0
ARC
  5
123
330
1F
100
AcDbEntity
  8
0
  6
SLD-Plná
 62
     7
370
    25
100
AcDbCircle
 10
6689.3969831993
 20
5355.0029843455
 30
0.0
 40
0.4535294171714211
100
AcDbArc
 50
200.1244280041
 51
347.9776879702
  0
ARC
  5
124
330
1F
100
AcDbEntity
  8
0
  6
SLD-Plná
 62
     7
370
    25
100
AcDbCircle
 10
6690.6317621856
 20
5354.7452164318
 30
0.0
 40
0.8078737445004885
100
AcDbArc
 50
78.1676059144
 51
168.3380525929
  0
ARC
  5
125
330
1F
100
AcDbEntity
  8
0
  6
SLD-Plná
 62
     7
370
    25
100
AcDbCircle
 10
6690.8973820691
 20
5355.959550984
 30
0.0
 40
0.4352618147887563
100
AcDbArc
 50
256.7224598382
 51
50.051515225
  0
ARC
  5
126
330
1F
100
AcDbEntity
  8
0
  6
SLD-Plná
 62
     7
370
    25
100
AcDbCircle
 10
6691.6536973024
 20
5356.8893659673
 30
0.0
 40
0.7633781761721283
100
AcDbArc
 50
137.3554444626
 51
231.3444526204
  0
LINE
  5
127
330
1F
100
AcDbEntity
  8
0
  6
SLD-Plná
 62
     7
370
    25
100
AcDbLine
 10
6691.0921788371
 20
5357.800388097
 30
0.0
 11
6691.0921788371
 21
5357.4065151265
 31
0.0
  0
LINE
  5
128
330
1F
100
AcDbEntity
  8
0
  6
SLD-Plná
 62
     7
370
    25
100
AcDbLine
 10
6691.0921788371
 20
5357.800388097
 30
0.0
 11
6691.1557416059
 21
5357.8906643169
 31
0.0
  0
LWPOLYLINE
  5
129
330
1F
100
AcDbEntity
  8
0
  6
SLD-Plná
 62
     7
370
    25
100
AcDbPolyline
 90
        3
 70
   128
 43
0.0
 10
6687.2443073959
 20
5357.6704544313
 10
6687.2592510838
 20
5357.6443751295
 10
6687.3549477341
 20
5357.5357085877
  0
LINE
  5
12A
330
1F
100
AcDbEntity
  8
0
  6
SLD-Plná
 62
     7
370
    25
100
AcDbLine
 10
6687.3549477341
 20
5357.5357085877
 30
0.0
 11
6687.3549477341
 21
5357.1418356172
 31
0.0
  0
LWPOLYLINE
  5
12B
330
1F
100
AcDbEntity
  8
0
  6
SLD-Plná
 62
     7
370
    25
100
AcDbPolyline
 90
       17
 70
   128
 43
0.0
 10
6688.6455792472
 20
5356.3107865098
 10
6688.8541149074
 20
5356.1126898124
 10
6689.1253419372
 20
5356.0066751531
 10
6689.4179684802
 20
5356.0088823028
 10
6689.6874447978
 20
5356.118975243
 10
6689.8927455634
 20
5356.3201933215
 10
6690.0026155966
 20
5356.5819029099
 10
6690.0003281807
 20
5356.8642610958
 10
6689.8862315542
 20
5357.124281405
 10
6689.677695894
 20
5357.3223781025
 10
6689.4064688642
 20
5357.4283927618
 10
6689.1138423212
 20
5357.4261856121
 10
6688.8443660036
 20
5357.3160926719
 10
6688.639065238
 20
5357.1148745934
 10
6688.5291952048
 20
5356.8531650049
 10
6688.5314826207
 20
5356.570806819
 10
6688.6455792472
 20
5356.3107865098
  0
ARC
  5
12C
330
1F
100
AcDbEntity
  8
0
  6
SLD-Plná
 62
     7
370
    25
100
AcDbCircle
 10
6689.2659054007
 20
5357.0927358466
 30
0.0
 40
0.7502323701895715
100
AcDbArc
 50
1.4260709936
 51
178.5739290064
  0
ARC
  5
12D
330
1F
100
AcDbEntity
  8
0
  6
SLD-Plná
 62
     7
370
    25
100
AcDbCircle
 10
6691.6549165235
 20
5357.2819855403
 30
0.0
 40
0.7651241170295464
100
AcDbArc
 50
137.3482553362
 51
179.8683802035
  0
ARC
  5
12E
330
1F
100
AcDbEntity
  8
0
  6
SLD-Plná
 62
     7
370
    25
100
AcDbCircle
 10
6686.873080988
 20
5356.9364817754
 30
0.0
 40
0.7689397463619567
100
AcDbArc
 50
0.1929062615
 51
51.1955855084
  0
LINE
  5
12F
330
1F
100
AcDbEntity
  8
0
  6
SLD-Plná
 62
     7
370
    25
100
AcDbLine
 10
6690.7974162562
 20
5355.9297971333
 30
0.0
 11
6690.7974162562
 21
5355.5359241628
 31
0.0
  0
ARC
  5
130
330
1F
100
AcDbEntity
  8
0
  6
SLD-Plná
 62
     7
370
    25
100
AcDbCircle
 10
6690.8878377243
 20
5356.3755009806
 30
0.0
 40
0.4547834225538087
100
AcDbArc
 50
258.5318520971
 51
331.4984757451
  0
ARC
  5
131
330
1F
100
AcDbEntity
  8
0
  6
SLD-Plná
 62
     7
370
    25
100
AcDbCircle
 10
6687.7765018307
 20
5356.1560076209
 30
0.0
 40
0.4557994148213974
100
AcDbArc
 50
208.5346735563
 51
289.6276276064
  0
LINE
  5
132
330
1F
100
AcDbEntity
  8
0
  6
SLD-Plná
 62
     7
370
    25
100
AcDbLine
 10
6687.9296074905
 20
5355.7266921617
 30
0.0
 11
6687.9296074905
 21
5355.3328191912
 31
0.0
  0
LINE
  5
133
330
1F
100
AcDbEntity
  8
0
  6
SLD-Plná
 62
     7
370
    25
100
AcDbLine
 10
6689.8405651571
 20
5355.302390502
 30
0.0
 11
6689.8405651571
 21
5354.9085175315
 31
0.0
  0
ARC
  5
134
330
1F
100
AcDbEntity
  8
0
  6
SLD-Plná
 62
     7
370
    25
100
AcDbCircle
 10
6690.6317621856
 20
5355.1390894023
 30
0.0
 40
0.8078737445003047
100
AcDbArc
 50
78.1676059144
 51
168.338052593
  0
LINE
  5
135
330
1F
100
AcDbEntity
  8
0
  6
SLD-Plná
 62
     7
370
    25
100
AcDbLine
 10
6688.9711428199
 20
5355.2408159642
 30
0.0
 11
6688.9711428199
 21
5354.8469429937
 31
0.0
  0
ARC
  5
136
330
1F
100
AcDbEntity
  8
0
  6
SLD-Plná
 62
     7
370
    25
100
AcDbCircle
 10
6688.205246952
 20
5354.9582916404
 30
0.0
 40
0.8163433553983032
100
AcDbArc
 50
20.2480522691
 51
109.7338479677
  0
ARC
  5
137
330
1F
100
AcDbEntity
  8
0
  6
SLD-Plná
 62
     7
370
    25
100
AcDbCircle
 10
6689.3969831993
 20
5355.396857316
 30
0.0
 40
0.4535294171712316
100
AcDbArc
 50
200.124428004
 51
347.9776879704
  0
LINE
  5
138
330
1F
100
AcDbEntity
  8
0
  6
SLD-Plná
 62
     7
370
    25
100
AcDbLine
 10
7012.2659054007
 20
5388.4675628961
 30
0.0
 11
7012.2659054007
 21
5389.730974172
 31
0.0
  0
SPLINE
  5
139
330
1F
100
AcDbEntity
  8
0
  6
SLD-Plná
 62
     7
370
    25
100
AcDbSpline
210
0.0
220
0.0
230
1.0
 70
    24
 71
     3
 72
    27
 73
    23
 74
     0
 42
0.00000001
 43
0.00000001
 40
0.0
 40
0.0
 40
0.0
 40
0.0
 40
0.0335229216666272
 40
0.0670459375827408
 40
0.1206306651864237
 40
0.1744077955232085
 40
0.2281851554194806
 40
0.2817701971825713
 40
0.3354398660673052
 40
0.3893019509100254
 40
0.4431639433168789
 40
0.4968334857007532
 40
0.5505120535823794
 40
0.6043826315920482
 40
0.658253685618025
 40
0.7119329049336243
 40
0.765648043751291
 40
0.8195554505818947
 40
0.8734631103512013
 40
0.9271785953195719
 40
0.9808940633492707
 40
1.0
 40
1.0
 40
1.0
 40
1.0
 10
7012.2659054007
 20
5389.730974171999
 30
0.0
 10
7015.398920828276
 20
5389.730974171999
 30
0.0
 10
7021.664960491881
 20
5389.730974171999
 30
0.0
 10
7032.907134228978
 20
5389.730974171999
 30
0.0
 10
7045.94393272349
 20
5389.730974171999
 30
0.0
 10
7060.611404397992
 20
5389.730974171999
 30
0.0
 10
7074.938694379033
 20
5389.730974171999
 30
0.0
 10
7088.812941722391
 20
5389.730974171999
 30
0.0
 10
7102.134460307241
 20
5389.730974171999
 30
0.0
 10
7114.837980580962
 20
5389.730974171999
 30
0.0
 10
7126.818515037997
 20
5389.730974171999
 30
0.0
 10
7137.973271784646
 20
5389.730974171999
 30
0.0
 10
7148.208886127893
 20
5389.730974171999
 30
0.0
 10
7157.490121870776
 20
5389.730974171999
 30
0.0
 10
7165.749657831095
 20
5389.730974171999
 30
0.0
 10
7172.914577716992
 20
5389.730974171999
 30
0.0
 10
7178.909415675172
 20
5389.730974171999
 30
0.0
 10
7183.721318092658
 20
5389.730974171999
 30
0.0
 10
7187.349085120286
 20
5389.730974171999
 30
0.0
 10
7189.646213283733
 20
5389.730974171999
 30
0.0
 10
7190.680766480164
 20
5389.730974171999
 30
0.0
 10
7190.528409247426
 20
5389.730974171999
 30
0.0
 10
7190.488435730714
 20
5389.730974171999
 30
0.0
  0
SPLINE
  5
13A
330
1F
100
AcDbEntity
  8
0
  6
SLD-Plná
 62
     7
370
    25
100
AcDbSpline
210
0.0
220
0.0
230
1.0
 70
    24
 71
     3
 72
    19
 73
    15
 74
     0
 42
0.00000001
 43
0.00000001
 40
0.0
 40
0.0
 40
0.0
 40
0.0
 40
0.0833333333333332
 40
0.1666666666666665
 40
0.2499999999999995
 40
0.3333333333333335
 40
0.416666666666666
 40
0.4999999999999998
 40
0.5833333333333329
 40
0.6666666666666661
 40
0.7499999999999999
 40
0.833333333333333
 40
0.9166666666666662
 40
1.0
 40
1.0
 40
1.0
 40
1.0
 10
7012.2659054007
 20
5108.54596764604
 30
0.0
 10
7012.2659054007
 20
5104.838453028342
 30
0.0
 10
7012.265905400701
 20
5097.423423792947
 30
0.0
 10
7012.2659054007
 20
5086.85387942654
 30
0.0
 10
7012.2659054007
 20
5076.849059571418
 30
0.0
 10
7012.2659054007
 20
5067.557323672033
 30
0.0
 10
7012.2659054007
 20
5059.080169079804
 30
0.0
 10
7012.2659054007
 20
5051.519968812121
 30
0.0
 10
7012.2659054007
 20
5044.964766948434
 30
0.0
 10
7012.2659054007
 20
5039.494289995818
 30
0.0
 10
7012.2659054007
 20
5035.164800955136
 30
0.0
 10
7012.2659054007
 20
5032.058205238148
 30
0.0
 10
7012.2659054007
 20
5030.096209613494
 30
0.0
 10
7012.2659054007
 20
5029.852719319164
 30
0.0
 10
7012.2659054007
 20
5029.730974171999
 30
0.0
  0
LINE
  5
13B
330
1F
100
AcDbEntity
  8
0
  6
SLD-Plná
 62
     7
370
    25
100
AcDbLine
 10
7012.2659054007
 20
5388.4675628961
 30
0.0
 11
7012.2659054007
 21
5108.545967646
 31
0.0
  0
LINE
  5
13C
330
1F
100
AcDbEntity
  8
0
  6
SLD-Plná
 62
     7
370
    25
100
AcDbLine
 10
7012.2659054007
 20
5388.4675628961
 30
0.0
 11
6662.2659054007
 21
5388.4675628961
 31
0.0
  0
LINE
  5
13D
330
1F
100
AcDbEntity
  8
0
  6
SLD-Plná
 62
     7
370
    25
100
AcDbLine
 10
6662.2659054007
 20
5388.4675628961
 30
0.0
 11
6662.2659054007
 21
5389.730974172
 31
0.0
  0
LINE
  5
13E
330
1F
100
AcDbEntity
  8
0
  6
SLD-Plná
 62
     7
370
    25
100
AcDbLine
 10
6662.2659054007
 20
5389.730974172
 30
0.0
 11
7012.2659054007
 21
5389.730974172
 31
0.0
  0
LINE
  5
13F
330
1F
100
AcDbEntity
  8
0
  6
SLD-Plná
 62
     7
370
    25
100
AcDbLine
 10
7012.2659054007
 20
5108.545967646
 30
0.0
 11
6662.2659054007
 21
5108.545967646
 31
0.0
  0
LINE
  5
140
330
1F
100
AcDbEntity
  8
0
  6
SLD-Plná
 62
     7
370
    25
100
AcDbLine
 10
6662.2659054007
 20
5388.4675628961
 30
0.0
 11
6662.2659054007
 21
5108.545967646
 31
0.0
  0
LINE
  5
141
330
1F
100
AcDbEntity
  8
0
  6
SLD-Plná
 62
     7
370
    25
100
AcDbLine
 10
6662.2659054007
 20
5108.545967646
 30
0.0
 11
6662.2659054007
 21
5029.730974172
 31
0.0
  0
SPLINE
  5
142
330
1F
100
AcDbEntity
  8
0
  6
SLD-Plná
 62
     8
370
    25
100
AcDbSpline
210
0.0
220
0.0
230
1.0
 70
     8
 71
     3
 72
    28
 73
    24
 74
     0
 42
0.00000001
 43
0.00000001
 40
0.0
 40
0.0
 40
0.0
 40
0.0
 40
0.0182378874663743
 40
0.0728075924292537
 40
0.1258399388757448
 40
0.1788722818886232
 40
0.2334445338709743
 40
0.2880164275863322
 40
0.3410181913766466
 40
0.3940194806424059
 40
0.448560698601379
 40
0.5031017189928177
 40
0.5560979958485834
 40
0.6090945221885901
 40
0.6636367576029449
 40
0.7181793486404687
 40
0.7710969016813806
 40
0.8240145936729313
 40
0.8784778682168269
 40
0.9329410073808267
 40
0.9400470791497736
 40
0.9684780385100656
 40
1.0
 40
1.0
 40
1.0
 40
1.0
 10
7191.394665000571
 20
5388.283992014799
 30
0.0
 10
7191.434879226324
 20
5388.283929810998
 30
0.0
 10
7191.595418705689
 20
5388.283681486786
 30
0.0
 10
7190.546706469125
 20
5388.285304481473
 30
0.0
 10
7188.273639379413
 20
5388.28881998475
 30
0.0
 10
7184.686202234709
 20
5388.294325061875
 30
0.0
 10
7179.847847431418
 20
5388.301699561609
 30
0.0
 10
7173.791498997038
 20
5388.310848770162
 30
0.0
 10
7166.644524033489
 20
5388.32150177674
 30
0.0
 10
7158.424542394239
 20
5388.333596658466
 30
0.0
 10
7149.070658308166
 20
5388.347056843511
 30
0.0
 10
7138.728660796887
 20
5388.361545554914
 30
0.0
 10
7127.581027159043
 20
5388.376623209459
 30
0.0
 10
7115.630082176373
 20
5388.391984682024
 30
0.0
 10
7102.815791090698
 20
5388.407487035339
 30
0.0
 10
7089.350921431565
 20
5388.422386006951
 30
0.0
 10
7075.471406565138
 20
5388.436070661869
 30
0.0
 10
7061.157351591241
 20
5388.448115009245
 30
0.0
 10
7046.351967207027
 20
5388.457978153705
 30
0.0
 10
7035.557292597465
 20
5388.462930828493
 30
0.0
 10
7027.145196210086
 20
5388.465594108813
 30
0.0
 10
7020.859776484547
 20
5388.467141712438
 30
0.0
 10
7015.227326792281
 20
5388.467417757484
 30
0.0
 10
7012.2659054007
 20
5388.467562896056
 30
0.0
  0
SPLINE
  5
143
330
1F
100
AcDbEntity
  8
0
  6
SLD-Plná
 62
     7
370
    25
100
AcDbSpline
210
0.0
220
0.0
230
1.0
 70
     8
 71
     3
 72
    53
 73
    49
 74
     0
 42
0.00000001
 43
0.00000001
 40
0.0
 40
0.0
 40
0.0
 40
0.0
 40
0.0005621990081101
 40
0.0229926997767777
 40
0.0455171906390358
 40
0.0681193343014041
 40
0.0907814466825912
 40
0.1134846850709686
 40
0.1362095426751407
 40
0.1589325520261599
 40
0.1816318649124281
 40
0.2042894844346173
 40
0.2268889903256354
 40
0.2494157242400304
 40
0.2718258129553031
 40
0.2942280153738305
 40
0.3167455305076901
 40
0.3393583930695955
 40
0.3620446593881741
 40
0.3847803929301369
 40
0.4075402291434838
 40
0.4302924873161159
 40
0.4530075649735844
 40
0.4756599418603175
 40
0.4982255331163471
 40
0.5206827205814433
 40
0.5430648067460615
 40
0.5655291151122679
 40
0.5880864505569491
 40
0.6107199032159545
 40
0.6334110080963754
 40
0.6561401431169579
 40
0.6788870377874393
 40
0.7016259202384538
 40
0.7243356023113419
 40
0.7469974833797729
 40
0.7695946126805003
 40
0.7921120649334464
 40
0.8145058638992864
 40
0.8369054026962498
 40
0.8594236037172085
 40
0.8820385160035904
 40
0.9047262072290875
 40
0.9274608279183885
 40
0.9502152262709652
 40
0.9729540219237968
 40
0.9956478634145305
 40
1.0
 40
1.0
 40
1.0
 40
1.0
 10
6127.170568700003
 20
4378.587263156307
 30
0.0
 10
6127.205569363602
 20
4378.535557315947
 30
0.0
 10
6128.637019327981
 20
4376.420902457146
 30
0.0
 10
6131.708611278783
 20
4372.40009113354
 30
0.0
 10
6136.400229411764
 20
4366.545035007277
 30
0.0
 10
6141.379468061118
 20
4360.893953222043
 30
0.0
 10
6146.595542689443
 20
4355.435015211743
 30
0.0
 10
6152.046652752577
 20
4350.190412617888
 30
0.0
 10
6157.716255244275
 20
4345.172822950752
 30
0.0
 10
6163.59032532953
 20
4340.396824248642
 30
0.0
 10
6169.653152584076
 20
4335.875334906965
 30
0.0
 10
6175.889136036352
 20
4331.620076459174
 30
0.0
 10
6182.282614651404
 20
4327.641488556043
 30
0.0
 10
6188.814709779038
 20
4323.950326797187
 30
0.0
 10
6195.478532012801
 20
4320.550673147688
 30
0.0
 10
6202.278302579108
 20
4317.434415785607
 30
0.0
 10
6209.223023872195
 20
4314.596076951897
 30
0.0
 10
6216.309517581555
 20
4312.038486703381
 30
0.0
 10
6223.519276255456
 20
4309.770260987734
 30
0.0
 10
6230.832779280075
 20
4307.799162770578
 30
0.0
 10
6238.229040982595
 20
4306.13210717295
 30
0.0
 10
6245.686050881351
 20
4304.77486103186
 30
0.0
 10
6253.181417070177
 20
4303.731780213067
 30
0.0
 10
6260.693294545434
 20
4303.005813242589
 30
0.0
 10
6268.200499633509
 20
4302.598286488248
 30
0.0
 10
6275.688235449503
 20
4302.510169860628
 30
0.0
 10
6283.16168498795
 20
4302.739033885304
 30
0.0
 10
6290.630067130795
 20
4303.281406287491
 30
0.0
 10
6298.097015257709
 20
4304.138437549745
 30
0.0
 10
6305.546634601541
 20
4305.30986029128
 30
0.0
 10
6312.959725065793
 20
4306.794227281927
 30
0.0
 10
6320.316826047562
 20
4308.588957935001
 30
0.0
 10
6327.597848705909
 20
4310.690197544477
 30
0.0
 10
6334.782775597516
 20
4313.092843598945
 30
0.0
 10
6341.852069864432
 20
4315.790642765332
 30
0.0
 10
6348.787460091416
 20
4318.77654507628
 30
0.0
 10
6355.571632337456
 20
4322.042793498626
 30
0.0
 10
6362.185321089501
 20
4325.579111967777
 30
0.0
 10
6368.623313632641
 20
4329.382995959778
 30
0.0
 10
6374.895849342775
 20
4333.45397197032
 30
0.0
 10
6381.01306577332
 20
4337.797386846954
 30
0.0
 10
6386.969377334281
 20
4342.411341413158
 30
0.0
 10
6392.747580577034
 20
4347.284034854408
 30
0.0
 10
6398.328137624673
 20
4352.40433128883
 30
0.0
 10
6403.700927685753
 20
4357.751686177058
 30
0.0
 10
6408.820692494974
 20
4363.33231880703
 30
0.0
 10
6412.446106410506
 20
4367.512502320698
 30
0.0
 10
6414.284014999625
 20
4369.888473217658
 30
0.0
 10
6414.579764304342
 20
4370.27080547562
 30
0.0
  0
LINE
  5
144
330
1F
100
AcDbEntity
  8
0
  6
SLD-Plná
 62
     7
370
    25
100
AcDbLine
 10
6453.7090914827
 20
4481.9370325707
 30
0.0
 11
6453.7090914827
 21
4831.9370325707
 31
0.0
  0
LINE
  5
145
330
1F
100
AcDbEntity
  8
0
  6
SLD-Plná
 62
     7
370
    25
100
AcDbLine
 10
6094.3284191895
 20
4831.9370325707
 30
0.0
 11
6094.3284191895
 21
4481.9370325707
 31
0.0
  0
CIRCLE
  5
146
330
1F
100
AcDbEntity
  8
0
  6
SLD-Plná
 62
     7
370
    25
100
AcDbCircle
 10
6354.0187553361
 20
4722.9370325707
 30
0.0
 40
1.5
  0
LINE
  5
147
330
1F
100
AcDbEntity
  8
0
  6
SLD-Plná
 62
     7
370
    25
100
AcDbLine
 10
6353.4414050669
 20
4723.9370325707
 30
0.0
 11
6352.8640547977
 21
4722.9370325707
 31
0.0
  0
LINE
  5
148
330
1F
100
AcDbEntity
  8
0
  6
SLD-Plná
 62
     7
370
    25
100
AcDbLine
 10
6352.8640547977
 20
4722.9370325707
 30
0.0
 11
6353.4414050669
 21
4721.9370325707
 31
0.0
  0
LINE
  5
149
330
1F
100
AcDbEntity
  8
0
  6
SLD-Plná
 62
     7
370
    25
100
AcDbLine
 10
6353.4414050669
 20
4721.9370325707
 30
0.0
 11
6354.5961056053
 21
4721.9370325707
 31
0.0
  0
LINE
  5
14A
330
1F
100
AcDbEntity
  8
0
  6
SLD-Plná
 62
     7
370
    25
100
AcDbLine
 10
6354.5961056053
 20
4721.9370325707
 30
0.0
 11
6355.1734558745
 21
4722.9370325707
 31
0.0
  0
LINE
  5
14B
330
1F
100
AcDbEntity
  8
0
  6
SLD-Plná
 62
     7
370
    25
100
AcDbLine
 10
6355.1734558745
 20
4722.9370325707
 30
0.0
 11
6354.5961056053
 21
4723.9370325707
 31
0.0
  0
LINE
  5
14C
330
1F
100
AcDbEntity
  8
0
  6
SLD-Plná
 62
     7
370
    25
100
AcDbLine
 10
6354.5961056053
 20
4723.9370325707
 30
0.0
 11
6353.4414050669
 21
4723.9370325707
 31
0.0
  0
CIRCLE
  5
14D
330
1F
100
AcDbEntity
  8
0
  6
SLD-Plná
 62
     7
370
    25
100
AcDbCircle
 10
6354.0187553361
 20
4722.9370325707
 30
0.0
 40
2.800000000000182
  0
CIRCLE
  5
14E
330
1F
100
AcDbEntity
  8
0
  6
SLD-Plná
 62
     7
370
    25
100
AcDbCircle
 10
6194.0187553361
 20
4722.9370325707
 30
0.0
 40
1.5
  0
LINE
  5
14F
330
1F
100
AcDbEntity
  8
0
  6
SLD-Plná
 62
     7
370
    25
100
AcDbLine
 10
6192.8640547977
 20
4722.9370325707
 30
0.0
 11
6193.4414050669
 21
4721.9370325707
 31
0.0
  0
LINE
  5
150
330
1F
100
AcDbEntity
  8
0
  6
SLD-Plná
 62
     7
370
    25
100
AcDbLine
 10
6194.5961056053
 20
4721.9370325707
 30
0.0
 11
6195.1734558745
 21
4722.9370325707
 31
0.0
  0
LINE
  5
151
330
1F
100
AcDbEntity
  8
0
  6
SLD-Plná
 62
     7
370
    25
100
AcDbLine
 10
6195.1734558745
 20
4722.9370325707
 30
0.0
 11
6194.5961056053
 21
4723.9370325707
 31
0.0
  0
LINE
  5
152
330
1F
100
AcDbEntity
  8
0
  6
SLD-Plná
 62
     7
370
    25
100
AcDbLine
 10
6194.5961056053
 20
4723.9370325707
 30
0.0
 11
6193.4414050669
 21
4723.9370325707
 31
0.0
  0
LINE
  5
153
330
1F
100
AcDbEntity
  8
0
  6
SLD-Plná
 62
     7
370
    25
100
AcDbLine
 10
6193.4414050669
 20
4721.9370325707
 30
0.0
 11
6194.5961056053
 21
4721.9370325707
 31
0.0
  0
LINE
  5
154
330
1F
100
AcDbEntity
  8
0
  6
SLD-Plná
 62
     7
370
    25
100
AcDbLine
 10
6193.4414050669
 20
4723.9370325707
 30
0.0
 11
6192.8640547977
 21
4722.9370325707
 31
0.0
  0
CIRCLE
  5
155
330
1F
100
AcDbEntity
  8
0
  6
SLD-Plná
 62
     7
370
    25
100
AcDbCircle
 10
6194.0187553361
 20
4722.9370325707
 30
0.0
 40
2.799999999999272
  0
SPLINE
  5
156
330
1F
100
AcDbEntity
  8
0
  6
SLD-Plná
 62
     7
370
    25
100
AcDbSpline
210
0.0
220
0.0
230
1.0
 70
     8
 71
     3
 72
    45
 73
    41
 74
     0
 42
0.00000001
 43
0.00000001
 40
0.0
 40
0.0
 40
0.0
 40
0.0
 40
0.0167616969430525
 40
0.033523441011512
 40
0.0603161822230606
 40
0.0872051261562972
 40
0.1140941848708943
 40
0.1408870831643594
 40
0.1677222956146946
 40
0.1946537173992533
 40
0.2215850929652276
 40
0.248420242164242
 40
0.275259904175701
 40
0.3021955726035534
 40
0.3291314790429124
 40
0.3559714667759462
 40
0.3828294145130032
 40
0.4097834976107169
 40
0.4367377071795636
 40
0.4635958279944105
 40
0.4904539403398021
 40
0.5174079815091213
 40
0.5443617490267069
 40
0.5712194868771174
 40
0.5980248188690799
 40
0.6249255573885808
 40
0.6518262464573596
 40
0.6786315107764866
 40
0.7053968667410696
 40
0.7322575860048836
 40
0.7591183742431103
 40
0.785883824598781
 40
0.8126127436798468
 40
0.8394368521777421
 40
0.8662606839728012
 40
0.8929892243873355
 40
0.9196945002314545
 40
0.9464949733435413
 40
0.9732951414948245
 40
1.0
 40
1.0
 40
1.0
 40
1.0
 10
6095.328419189533
 20
4481.93703257072
 30
0.0
 10
6095.376677518972
 20
4478.804017143146
 30
0.0
 10
6095.47319431353
 20
4472.537977479544
 30
0.0
 10
6096.395636244329
 20
4461.29580374242
 30
0.0
 10
6098.336526900595
 20
4448.259005248071
 30
0.0
 10
6101.823444573154
 20
4433.591533572909
 30
0.0
 10
6106.513047135072
 20
4419.264243594323
 30
0.0
 10
6112.387337937014
 20
4405.38999624183
 30
0.0
 10
6119.442411589755
 20
4392.068477691138
 30
0.0
 10
6127.603912830138
 20
4379.364957289452
 30
0.0
 10
6136.793912212309
 20
4367.384423309768
 30
0.0
 10
6146.946391231507
 20
4356.229664787732
 30
0.0
 10
6158.025987838061
 20
4345.994057074317
 30
0.0
 10
6169.939063932148
 20
4336.712796501192
 30
0.0
 10
6182.582076114393
 20
4328.453353168424
 30
0.0
 10
6195.860390839045
 20
4321.288088715712
 30
0.0
 10
6209.710906155786
 20
4315.294538101944
 30
0.0
 10
6224.034791364557
 20
4310.477813775846
 30
0.0
 10
6238.709416351408
 20
4306.868034389675
 30
0.0
 10
6253.618256882172
 20
4304.504008933127
 30
0.0
 10
6268.675366371667
 20
4303.434696884258
 30
0.0
 10
6283.78605686593
 20
4303.629879806062
 30
0.0
 10
6298.828305337283
 20
4305.079362779326
 30
0.0
 10
6313.669572346414
 20
4307.780774618028
 30
0.0
 10
6328.212711041148
 20
4311.750015926455
 30
0.0
 10
6342.379725352658
 20
4316.923611083743
 30
0.0
 10
6356.069021237096
 20
4323.25395206183
 30
0.0
 10
6369.159849767243
 20
4330.6948643725
 30
0.0
 10
6381.554491976469
 20
4339.232112083273
 30
0.0
 10
6393.198250128194
 20
4348.782924263502
 30
0.0
 10
6404.00992226108
 20
4359.266378364743
 30
0.0
 10
6413.891172217466
 20
4370.599661929852
 30
0.0
 10
6422.755930276387
 20
4382.736035804465
 30
0.0
 10
6430.579900696835
 20
4395.579665461479
 30
0.0
 10
6437.312258711212
 20
4409.02787240547
 30
0.0
 10
6442.884738939118
 20
4422.973033226008
 30
0.0
 10
6447.239772612091
 20
4437.342518217784
 30
0.0
 10
6450.355478986681
 20
4452.037585413867
 30
0.0
 10
6452.33438540367
 20
4466.942120594128
 30
0.0
 10
6452.584337871557
 20
4476.944667828825
 30
0.0
 10
6452.709091482668
 20
4481.93703257072
 30
0.0
  0
SPLINE
  5
157
330
1F
100
AcDbEntity
  8
0
  6
SLD-Plná
 62
     7
370
    25
100
AcDbSpline
210
0.0
220
0.0
230
1.0
 70
     8
 71
     3
 72
    15
 73
    11
 74
     0
 42
0.00000001
 43
0.00000001
 40
0.0
 40
0.0
 40
0.0
 40
0.0
 40
0.1247264249166278
 40
0.2498986883418756
 40
0.3750724961955014
 40
0.4998010346740538
 40
0.6246272453340685
 40
0.7498988427709529
 40
0.8751718542393134
 40
1.0
 40
1.0
 40
1.0
 40
1.0
 10
6453.673775109411
 20
4481.93703257072
 30
0.0
 10
6453.548237926825
 20
4476.91771387783
 30
0.0
 10
6453.296714825067
 20
4466.861134780323
 30
0.0
 10
6451.305358148108
 20
4451.876332049165
 30
0.0
 10
6448.170656732636
 20
4437.102148977965
 30
0.0
 10
6443.787892539091
 20
4422.657320898383
 30
0.0
 10
6438.185935358275
 20
4408.635901514905
 30
0.0
 10
6431.398118522772
 20
4395.130717625481
 30
0.0
 10
6423.585872679255
 20
4382.175401166757
 30
0.0
 10
6417.497631347582
 20
4374.157016324307
 30
0.0
 10
6414.458925390376
 20
4370.154955226436
 30
0.0
  0
SPLINE
  5
158
330
1F
100
AcDbEntity
  8
0
  6
SLD-Plná
 62
     7
370
    25
100
AcDbSpline
210
0.0
220
0.0
230
1.0
 70
     8
 71
     3
 72
    17
 73
    13
 74
     0
 42
0.00000001
 43
0.00000001
 40
0.0
 40
0.0
 40
0.0
 40
0.0
 40
0.0034899900209469
 40
0.1413500761708705
 40
0.2787174046336799
 40
0.4158833018437502
 40
0.553542096817512
 40
0.6912001862771979
 40
0.8283651179645677
 40
0.8465528321273028
 40
0.9193207662307852
 40
1.0
 40
1.0
 40
1.0
 40
1.0
 10
6127.239385131496
 20
4378.640542964149
 30
0.0
 10
6127.161273925348
 20
4378.742065533148
 30
0.0
 10
6123.997647418486
 20
4382.853888998239
 30
0.0
 10
6118.698702998541
 20
4391.647460015749
 30
0.0
 10
6111.506877514533
 20
4404.966556232298
 30
0.0
 10
6105.622987766606
 20
4418.93222451459
 30
0.0
 10
6100.896535035443
 20
4433.330552183935
 30
0.0
 10
6097.395149076764
 20
4448.077352881616
 30
0.0
 10
6095.794289817249
 20
4458.727096125959
 30
0.0
 10
6094.959768953067
 20
4467.057754194034
 30
0.0
 10
6094.48587811672
 20
4473.343156411836
 30
0.0
 10
6094.405825509043
 20
4478.975609430297
 30
0.0
 10
6094.36373556279
 20
4481.93703257072
 30
0.0
  0
LINE
  5
159
330
1F
100
AcDbEntity
  8
0
  6
SLD-Plná
 62
     7
370
    25
100
AcDbLine
 10
6406.5187553361
 20
4544.4370325707
 30
0.0
 11
6406.5187553361
 21
4484.4370325707
 31
0.0
  0
ARC
  5
15A
330
1F
100
AcDbEntity
  8
0
  6
SLD-Plná
 62
     7
370
    25
100
AcDbCircle
 10
6274.0187553361
 20
4544.4370325707
 30
0.0
 40
132.5
100
AcDbArc
 50
0.0
 51
180.0
  0
LINE
  5
15B
330
1F
100
AcDbEntity
  8
0
  6
SLD-Plná
 62
     7
370
    25
100
AcDbLine
 10
6141.5187553361
 20
4484.4370325707
 30
0.0
 11
6141.5187553361
 21
4544.4370325707
 31
0.0
  0
ARC
  5
15C
330
1F
100
AcDbEntity
  8
0
  6
SLD-Plná
 62
     7
370
    25
100
AcDbCircle
 10
6274.0187553361
 20
4484.4370325707
 30
0.0
 40
132.5
100
AcDbArc
 50
180.0
 51
0.0
  0
LINE
  5
15D
330
1F
100
AcDbEntity
  8
0
  6
SLD-Plná
 62
     7
370
    25
100
AcDbLine
 10
6452.7090914827
 20
4481.9370325707
 30
0.0
 11
6452.7090914827
 21
4831.9370325707
 31
0.0
  0
LINE
  5
15E
330
1F
100
AcDbEntity
  8
0
  6
SLD-Plná
 62
     7
370
    25
100
AcDbLine
 10
6095.3284191895
 20
4831.9370325707
 30
0.0
 11
6095.3284191895
 21
4481.9370325707
 31
0.0
  0
LINE
  5
15F
330
1F
100
AcDbEntity
  8
0
  6
SLD-Plná
 62
     7
370
    25
100
AcDbLine
 10
6452.7090914827
 20
4831.9370325707
 30
0.0
 11
6095.3284191895
 21
4831.9370325707
 31
0.0
  0
LINE
  5
160
330
1F
100
AcDbEntity
  8
0
  6
SLD-Plná
 62
     7
370
    25
100
AcDbLine
 10
6452.7090914827
 20
4831.9370325707
 30
0.0
 11
6453.7090914827
 21
4831.9370325707
 31
0.0
  0
LINE
  5
161
330
1F
100
AcDbEntity
  8
0
  6
SLD-Plná
 62
     7
370
    25
100
AcDbLine
 10
6094.3284191895
 20
4831.9370325707
 30
0.0
 11
6095.3284191895
 21
4831.9370325707
 31
0.0
  0
ARC
  5
162
330
1F
100
AcDbEntity
  8
0
  6
SLD-Plná
 62
     7
370
    25
100
AcDbCircle
 10
6274.0187553361
 20
4544.4370325707
 30
0.0
 40
122.5
100
AcDbArc
 50
0.0
 51
180.0
  0
LINE
  5
163
330
1F
100
AcDbEntity
  8
0
  6
SLD-Plná
 62
     7
370
    25
100
AcDbLine
 10
6151.5187553361
 20
4544.4370325707
 30
0.0
 11
6141.5187553361
 21
4544.4370325707
 31
0.0
  0
LINE
  5
164
330
1F
100
AcDbEntity
  8
0
  6
SLD-Plná
 62
     7
370
    25
100
AcDbLine
 10
6396.5187553361
 20
4544.4370325707
 30
0.0
 11
6406.5187553361
 21
4544.4370325707
 31
0.0
  0
LINE
  5
165
330
1F
100
AcDbEntity
  8
0
  6
SLD-Plná
 62
     7
370
    25
100
AcDbLine
 10
6406.5187553361
 20
4484.4370325707
 30
0.0
 11
6396.5187553361
 21
4484.4370325707
 31
0.0
  0
LINE
  5
166
330
1F
100
AcDbEntity
  8
0
  6
SLD-Plná
 62
     7
370
    25
100
AcDbLine
 10
6396.5187553361
 20
4484.4370325707
 30
0.0
 11
6396.5187553361
 21
4544.4370325707
 31
0.0
  0
LINE
  5
167
330
1F
100
AcDbEntity
  8
0
  6
SLD-Plná
 62
     7
370
    25
100
AcDbLine
 10
6151.5187553361
 20
4544.4370325707
 30
0.0
 11
6151.5187553361
 21
4484.4370325707
 31
0.0
  0
LINE
  5
168
330
1F
100
AcDbEntity
  8
0
  6
SLD-Plná
 62
     7
370
    25
100
AcDbLine
 10
6141.5187553361
 20
4484.4370325707
 30
0.0
 11
6151.5187553361
 21
4484.4370325707
 31
0.0
  0
ARC
  5
169
330
1F
100
AcDbEntity
  8
0
  6
SLD-Plná
 62
     7
370
    25
100
AcDbCircle
 10
6274.0187553361
 20
4484.4370325707
 30
0.0
 40
122.5
100
AcDbArc
 50
180.0
 51
0.0
  0
SPLINE
  5
16A
330
1F
100
AcDbEntity
  8
0
  6
SLD-Plná
 62
     7
370
    25
100
AcDbSpline
210
0.0
220
0.0
230
1.0
 70
    11
 71
     3
 72
    40
 73
    36
 74
     0
 42
0.00000001
 43
0.00000001
 40
0.0
 40
0.0
 40
0.0
 40
0.0
 40
0.0000621107890005
 40
0.0313419736132411
 40
0.0625611427592049
 40
0.0937807389414632
 40
0.1250621037318186
 40
0.1563435743038559
 40
0.1875633014036291
 40
0.2187824868212437
 40
0.2500622993963655
 40
0.2813425405760461
 40
0.312562393528444
 40
0.3437821318377894
 40
0.3750622169911992
 40
0.4063424581771963
 40
0.4375623111321584
 40
0.4687820494399276
 40
0.5000621345861636
 40
0.5313423757664663
 40
0.5625622287225108
 40
0.5937819670332195
 40
0.6250620521800736
 40
0.6563422933594996
 40
0.6875621463155338
 40
0.7187818846265923
 40
0.7500619697737411
 40
0.7813422109517647
 40
0.8125620639050319
 40
0.8437818022154983
 40
0.875061887368088
 40
0.9063421285519505
 40
0.9375619815055413
 40
0.9687509333092578
 40
1.0
 40
1.0
 40
1.0
 40
1.0
 10
6247.51258047233
 20
4568.463862420364
 30
0.0
 10
6247.509137101712
 20
4568.460420807819
 30
0.0
 10
6245.77156408404
 20
4566.723734938213
 30
0.0
 10
6242.649426757617
 20
4562.892476590863
 30
0.0
 10
6239.181887050971
 20
4556.367620550733
 30
0.0
 10
6237.019369164252
 20
4549.29920259792
 30
0.0
 10
6236.268186289421
 20
4541.937048933765
 30
0.0
 10
6237.019428343827
 20
4534.574737086037
 30
0.0
 10
6239.181486265888
 20
4527.506724753788
 30
0.0
 10
6242.65050118338
 20
4520.98020817604
 30
0.0
 10
6247.325088195235
 20
4515.243311484794
 30
0.0
 10
6253.062146599947
 20
4510.568850217158
 30
0.0
 10
6259.588740166555
 20
4507.099821210796
 30
0.0
 10
6266.656677751264
 20
4504.93769453972
 30
0.0
 10
6274.01877176133
 20
4504.186427674121
 30
0.0
 10
6281.380849731045
 20
4504.937822904836
 30
0.0
 10
6288.448822125949
 20
4507.099841280214
 30
0.0
 10
6294.97546318056
 20
4510.568775121456
 30
0.0
 10
6300.712475665327
 20
4515.243335373597
 30
0.0
 10
6305.386934258954
 20
4520.980427413383
 30
0.0
 10
6308.855967615853
 20
4527.507016442737
 30
0.0
 10
6311.018093113925
 20
4534.574955250498
 30
0.0
 10
6311.769360323167
 20
4541.937048902708
 30
0.0
 10
6311.017964893515
 20
4549.299127073634
 30
0.0
 10
6308.855946967509
 20
4556.36709901736
 30
0.0
 10
6305.387011526978
 20
4562.893741674962
 30
0.0
 10
6300.712457235485
 20
4568.630748190574
 30
0.0
 10
6294.975342962226
 20
4573.305229051784
 30
0.0
 10
6288.448836753344
 20
4576.774179462892
 30
0.0
 10
6281.380588784898
 20
4578.936614591783
 30
0.0
 10
6274.019651112989
 20
4579.686724061436
 30
0.0
 10
6266.653259772766
 20
4578.939648362205
 30
0.0
 10
6259.603670977096
 20
4576.762254862278
 30
0.0
 10
6253.021167131326
 20
4573.3562407135
 30
0.0
 10
6249.349954231353
 20
4570.095701592822
 30
0.0
 10
6247.51258047233
 20
4568.463862420364
 30
0.0
  0
LINE
  5
16B
330
1F
100
AcDbEntity
  8
0
  6
SLD-Plná
 62
     8
370
    25
100
AcDbLine
 10
6094.3284191895
 20
4481.9370325707
 30
0.0
 11
6095.3284191895
 21
4481.9370325707
 31
0.0
  0
LINE
  5
16C
330
1F
100
AcDbEntity
  8
0
  6
SLD-Plná
 62
     8
370
    25
100
AcDbLine
 10
6453.7090914827
 20
4481.9370325707
 30
0.0
 11
6452.7090914827
 21
4481.9370325707
 31
0.0
  0
ENDSEC
  0
SECTION
  2
OBJECTS
  0
DICTIONARY
  5
C
330
0
100
AcDbDictionary
281
     1
  3
ACAD_GROUP
350
D
  3
ACAD_LAYOUT
350
1A
  3
ACAD_MLINESTYLE
350
17
  3
ACAD_PLOTSETTINGS
350
19
  3
ACAD_PLOTSTYLENAME
350
E
  3
ACAD_SCALELIST
350
47
  3
DWGPROPS
350
16D
  0
DICTIONARY
  5
D
102
{ACAD_REACTORS
330
C
102
}
330
C
100
AcDbDictionary
281
     1
  0
DICTIONARY
  5
1A
102
{ACAD_REACTORS
330
C
102
}
330
C
100
AcDbDictionary
281
     1
  3
Layout1
350
1E
  3
Layout2
350
26
  3
Model
350
22
  0
DICTIONARY
  5
17
102
{ACAD_REACTORS
330
C
102
}
330
C
100
AcDbDictionary
281
     1
  3
Standard
350
18
  0
DICTIONARY
  5
19
102
{ACAD_REACTORS
330
C
102
}
330
C
100
AcDbDictionary
281
     1
  0
ACDBDICTIONARYWDFLT
  5
E
102
{ACAD_REACTORS
330
C
102
}
330
C
100
AcDbDictionary
281
     1
  3
Normal
350
F
100
AcDbDictionaryWithDefault
340
F
  0
DICTIONARY
  5
47
102
{ACAD_REACTORS
330
C
102
}
330
C
100
AcDbDictionary
281
     1
  3
A0
350
48
  3
A1
350
49
  3
A2
350
4A
  3
A3
350
4B
  3
A4
350
4C
  3
A5
350
4D
  3
A6
350
4E
  3
A7
350
4F
  3
A8
350
50
  3
A9
350
51
  3
B0
350
52
  3
B1
350
53
  3
B2
350
54
  3
B3
350
55
  3
B4
350
56
  3
B5
350
57
  3
B6
350
58
  3
B7
350
59
  3
B8
350
5A
  3
B9
350
5B
  3
C0
350
5C
  3
C1
350
5D
  3
C2
350
5E
  3
C3
350
5F
  3
C4
350
60
  3
C5
350
61
  3
C6
350
62
  3
C7
350
63
  3
C8
350
64
  3
C9
350
65
  3
D0
350
66
  3
D1
350
67
  3
D2
350
68
  0
XRECORD
  5
16D
102
{ACAD_REACTORS
330
C
102
}
330
C
100
AcDbXrecord
280
     1
  1
DWGPROPS COOKIE
  2

  3

  4

  6

  7

  8
radek.stransky
  9

300
=
301
=
302
=
303
=
304
=
305
=
306
=
307
=
308
=
309
=
 40
0.0
 41
2460763.292597685
 42
2460763.292598252
  1

 90
        0
  0
LAYOUT
  5
1E
102
{ACAD_REACTORS
330
1A
102
}
330
1A
100
AcDbPlotSettings
  1

  2
none_device
  4

  6

 40
0.0
 41
0.0
 42
0.0
 43
0.0
 44
0.0
 45
0.0
 46
0.0
 47
0.0
 48
0.0
 49
0.0
140
0.0
141
0.0
142
1.0
143
1.0
 70
   688
 72
     1
 73
     0
 74
     5
  7

 75
    16
147
1.0
148
0.0
149
0.0
100
AcDbLayout
  1
Layout1
 70
     1
 71
     1
 10
0.0
 20
0.0
 11
420.0
 21
297.0
 12
0.0
 22
0.0
 32
0.0
 14
1.0000000000E+20
 24
1.0000000000E+20
 34
1.0000000000E+20
 15
-1.0000000000E+20
 25
-1.0000000000E+20
 35
-1.0000000000E+20
146
0.0
 13
0.0
 23
0.0
 33
0.0
 16
1.0
 26
0.0
 36
0.0
 17
0.0
 27
1.0
 37
0.0
 76
     0
330
1B
  0
LAYOUT
  5
26
102
{ACAD_REACTORS
330
1A
102
}
330
1A
100
AcDbPlotSettings
  1

  2
none_device
  4

  6

 40
0.0
 41
0.0
 42
0.0
 43
0.0
 44
0.0
 45
0.0
 46
0.0
 47
0.0
 48
0.0
 49
0.0
140
0.0
141
0.0
142
1.0
143
1.0
 70
   688
 72
     1
 73
     0
 74
     5
  7

 75
    16
147
1.0
148
0.0
149
0.0
100
AcDbLayout
  1
Layout2
 70
     1
 71
     2
 10
0.0
 20
0.0
 11
0.0
 21
0.0
 12
0.0
 22
0.0
 32
0.0
 14
0.0
 24
0.0
 34
0.0
 15
0.0
 25
0.0
 35
0.0
146
0.0
 13
0.0
 23
0.0
 33
0.0
 16
1.0
 26
0.0
 36
0.0
 17
0.0
 27
1.0
 37
0.0
 76
     0
330
23
  0
LAYOUT
  5
22
102
{ACAD_REACTORS
330
1A
102
}
330
1A
100
AcDbPlotSettings
  1

  2
none_device
  4
Letter_(8.50_x_11.00_Inches)
  6

 40
6.35
 41
6.35
 42
6.35000508
 43
6.35000508
 44
215.9
 45
279.4
 46
0.0
 47
0.0
 48
0.0
 49
0.0
140
0.0
141
0.0
142
1.0
143
1.0
 70
  1712
 72
     1
 73
     0
 74
     0
  7

 75
     0
147
1.0
148
0.0
149
0.0
100
AcDbLayout
  1
Model
 70
     1
 71
     0
 10
0.0
 20
0.0
 11
20000.0
 21
10000.0
 12
0.0
 22
0.0
 32
0.0
 14
0.0
 24
0.0
 34
0.0
 15
20000.0
 25
10000.0
 35
0.0
146
0.0
 13
0.0
 23
0.0
 33
0.0
 16
1.0
 26
0.0
 36
0.0
 17
0.0
 27
1.0
 37
0.0
 76
     0
330
1F
331
29
  0
MLINESTYLE
  5
18
102
{ACAD_REACTORS
330
17
102
}
330
17
100
AcDbMlineStyle
  2
Standard
 70
     0
  3

 62
   256
 51
90.0
 52
90.0
 71
     2
 49
0.5
 62
   256
  6
BYLAYER
 49
-0.5
 62
   256
  6
BYLAYER
  0
ACDBPLACEHOLDER
  5
F
102
{ACAD_REACTORS
330
E
102
}
330
E
  0
SCALE
  5
48
102
{ACAD_REACTORS
330
47
102
}
330
47
100
AcDbScale
 70
     0
300
1:1
140
1.0
141
1.0
290
     1
  0
SCALE
  5
49
102
{ACAD_REACTORS
330
47
102
}
330
47
100
AcDbScale
 70
     0
300
1:2
140
1.0
141
2.0
290
     0
  0
SCALE
  5
4A
102
{ACAD_REACTORS
330
47
102
}
330
47
100
AcDbScale
 70
     0
300
1:4
140
1.0
141
4.0
290
     0
  0
SCALE
  5
4B
102
{ACAD_REACTORS
330
47
102
}
330
47
100
AcDbScale
 70
     0
300
1:5
140
1.0
141
5.0
290
     0
  0
SCALE
  5
4C
102
{ACAD_REACTORS
330
47
102
}
330
47
100
AcDbScale
 70
     0
300
1:8
140
1.0
141
8.0
290
     0
  0
SCALE
  5
4D
102
{ACAD_REACTORS
330
47
102
}
330
47
100
AcDbScale
 70
     0
300
1:10
140
1.0
141
10.0
290
     0
  0
SCALE
  5
4E
102
{ACAD_REACTORS
330
47
102
}
330
47
100
AcDbScale
 70
     0
300
1:16
140
1.0
141
16.0
290
     0
  0
SCALE
  5
4F
102
{ACAD_REACTORS
330
47
102
}
330
47
100
AcDbScale
 70
     0
300
1:20
140
1.0
141
20.0
290
     0
  0
SCALE
  5
50
102
{ACAD_REACTORS
330
47
102
}
330
47
100
AcDbScale
 70
     0
300
1:30
140
1.0
141
30.0
290
     0
  0
SCALE
  5
51
102
{ACAD_REACTORS
330
47
102
}
330
47
100
AcDbScale
 70
     0
300
1:40
140
1.0
141
40.0
290
     0
  0
SCALE
  5
52
102
{ACAD_REACTORS
330
47
102
}
330
47
100
AcDbScale
 70
     0
300
1:50
140
1.0
141
50.0
290
     0
  0
SCALE
  5
53
102
{ACAD_REACTORS
330
47
102
}
330
47
100
AcDbScale
 70
     0
300
1:100
140
1.0
141
100.0
290
     0
  0
SCALE
  5
54
102
{ACAD_REACTORS
330
47
102
}
330
47
100
AcDbScale
 70
     0
300
2:1
140
2.0
141
1.0
290
     0
  0
SCALE
  5
55
102
{ACAD_REACTORS
330
47
102
}
330
47
100
AcDbScale
 70
     0
300
4:1
140
4.0
141
1.0
290
     0
  0
SCALE
  5
56
102
{ACAD_REACTORS
330
47
102
}
330
47
100
AcDbScale
 70
     0
300
8:1
140
8.0
141
1.0
290
     0
  0
SCALE
  5
57
102
{ACAD_REACTORS
330
47
102
}
330
47
100
AcDbScale
 70
     0
300
10:1
140
10.0
141
1.0
290
     0
  0
SCALE
  5
58
102
{ACAD_REACTORS
330
47
102
}
330
47
100
AcDbScale
 70
     0
300
100:1
140
100.0
141
1.0
290
     0
  0
SCALE
  5
59
102
{ACAD_REACTORS
330
47
102
}
330
47
100
AcDbScale
 70
     0
300
1/128" = 1'-0"
140
0.0078125
141
12.0
290
     0
  0
SCALE
  5
5A
102
{ACAD_REACTORS
330
47
102
}
330
47
100
AcDbScale
 70
     0
300
1/64" = 1'-0"
140
0.015625
141
12.0
290
     0
  0
SCALE
  5
5B
102
{ACAD_REACTORS
330
47
102
}
330
47
100
AcDbScale
 70
     0
300
1/32" = 1'-0"
140
0.03125
141
12.0
290
     0
  0
SCALE
  5
5C
102
{ACAD_REACTORS
330
47
102
}
330
47
100
AcDbScale
 70
     0
300
1/16" = 1'-0"
140
0.0625
141
12.0
290
     0
  0
SCALE
  5
5D
102
{ACAD_REACTORS
330
47
102
}
330
47
100
AcDbScale
 70
     0
300
3/32" = 1'-0"
140
0.09375
141
12.0
290
     0
  0
SCALE
  5
5E
102
{ACAD_REACTORS
330
47
102
}
330
47
100
AcDbScale
 70
     0
300
1/8" = 1'-0"
140
0.125
141
12.0
290
     0
  0
SCALE
  5
5F
102
{ACAD_REACTORS
330
47
102
}
330
47
100
AcDbScale
 70
     0
300
3/16" = 1'-0"
140
0.1875
141
12.0
290
     0
  0
SCALE
  5
60
102
{ACAD_REACTORS
330
47
102
}
330
47
100
AcDbScale
 70
     0
300
1/4" = 1'-0"
140
0.25
141
12.0
290
     0
  0
SCALE
  5
61
102
{ACAD_REACTORS
330
47
102
}
330
47
100
AcDbScale
 70
     0
300
3/8" = 1'-0"
140
0.375
141
12.0
290
     0
  0
SCALE
  5
62
102
{ACAD_REACTORS
330
47
102
}
330
47
100
AcDbScale
 70
     0
300
1/2" = 1'-0"
140
0.5
141
12.0
290
     0
  0
SCALE
  5
63
102
{ACAD_REACTORS
330
47
102
}
330
47
100
AcDbScale
 70
     0
300
3/4" = 1'-0"
140
0.75
141
12.0
290
     0
  0
SCALE
  5
64
102
{ACAD_REACTORS
330
47
102
}
330
47
100
AcDbScale
 70
     0
300
1" = 1'-0"
140
1.0
141
12.0
290
     0
  0
SCALE
  5
65
102
{ACAD_REACTORS
330
47
102
}
330
47
100
AcDbScale
 70
     0
300
1-1/2" = 1'-0"
140
1.5
141
12.0
290
     0
  0
SCALE
  5
66
102
{ACAD_REACTORS
330
47
102
}
330
47
100
AcDbScale
 70
     0
300
3" = 1'-0"
140
3.0
141
12.0
290
     0
  0
SCALE
  5
67
102
{ACAD_REACTORS
330
47
102
}
330
47
100
AcDbScale
 70
     0
300
6" = 1'-0"
140
6.0
141
12.0
290
     0
  0
SCALE
  5
68
102
{ACAD_REACTORS
330
47
102
}
330
47
100
AcDbScale
 70
     0
300
1'-0" = 1'-0"
140
12.0
141
12.0
290
     0
  0
ENDSEC
  0
EOF
